Cifra Club

Nunca Esqueci Juanita

Viva - A Vida É Uma Festa

Cifra: Principal (violão e guitarra)
tom: C
Intro

Parte 01 De 02
E|----------------------------------------------------|
B|-----------3-3/5~----7-5--3--3h5p3-2--0-0h2---------|
G|-6-6~--4-6-----------7-6--4--4-----2--1-1/2---------|
D|----------------------------------------------------|
A|----------------------------------------------------|
E|----------------------------------------------------|

Parte 02 De 02
                    A/E    E7
E|------------------0------0--------------------------|
B|---9---7---5---3--2------0--------------------------|
G|-9---7---6---4----2------1--------------------------|
D|------------------2------0--------------------------|
A|-------------------------2--------------------------|
E|------------------0------0--------------------------|

[Primeira Parte]

    A          A/E   A    A/E      
Eu nunca esqueci Juanita
   A      A/E      E7
Um olho azul e um verde
    E      E/G#        A       A/E  A
Os dentes tortos e o queixo atrás
        D       D/F#      E
E seus calos arranham o chão

[Ritmo da Primeira Parte]

Parte 01 De 04
   A     A/E   A     A/E   A     A/E
E|------------------------------------------|
B|---2-2---2-2---2-2---2-2---2-2---2-2------|
G|---2-2---2-2---2-2---2-2---2-2---2-2------|
D|---2-2---2-2---2-2---2-2---2-2---2-2------|
A|-0-----------0-----------0----------------|
E|-------0-----------0-----------0----------|

Parte 02 De 04
   E7
E|------------------------------------------|
B|---0-0-----0------------------------------|
G|---1-1-----1------------------------------|
D|---0-0-----0------------------------------|
A|------------------------------------------|
E|-0-0----0---------------------------------|

Parte 03 De 04
   E     E/G#  A     A/E   A
E|-------------------------5----------------|
B|---0-0---0-0---2-2---2-2-2----------------|
G|---1-1---1-1---2-2---2-2-2----------------|
D|---2-2---2-2---2-2---2-2-2----------------|
A|-------------0-----------0----------------|
E|-0-----4-----------0----------------------|

Parte 04 De 04
   D     D/F#    E
E|---2-2---2-2---0--------------------------|
B|---3-3---3-3---0--------------------------|
G|---2-2---2-2---0--------------------------|
D|-0-----4-------2--------------------------|
A|------------------------------------------|
E|------------------------------------------|

[Segunda Parte]

      A       A/E A    A/E
Tem franja arrepi_ada
   A       A/E         E7
Entorta o joelho ao andar
   E       E7/G#     A
Se eu não fosse tão feio
   D     E       A
A gente podia casar

Final

   D         E            A
E|-------2------------0---------------------|
B|-------3---------0------2-------2---------|
G|----2---------1---------2---2-------------|
D|-0----------------------2-2---2-----------|
A|------------------------0-----------------|
E|-----------0------------------------------|
00:00 / 00:00
Outros vídeos desta música
Repetir
Outros vídeos desta música
Composição de Franco / Molina
Colaboração e revisão:
  • Ian Kevin
  • Golden
  • Daniel Magnavita
10.669 exibições
    • ½ Tom
    • A
    • Bb
    • B
    • C
    • Db
    • D
    • Eb
    • E
    • F
    • F#
    • G
    • Ab
  • Adicionar à lista

    0 comentários

    Ver todos os comentários

    Entre para oCifra Club PRO

    Tenha acesso a benefícios exclusivos no App e no Site

    • Chega de anúncios

    • Prioridade de compra em lançamentos

    • Mais recursos no app do Afinador

    • Atendimento Prioritário

    • Descontos nos produtos Cifra Club

    • Ajude a produzir mais conteúdo

    00:00 / 00:00

    Cifra Club Pro

    Aproveite o Cifra Club com benefícios exclusivos e sem anúncios
    Cifra Club Pro
    Aproveite o Cifra Club com benefícios exclusivos e sem anúncios
    OK