Cifra Club

Lembre de Mim

Viva - A Vida É Uma Festa

Cifra: Principal (violão e guitarra)
tom: Db
[Primeira Parte]

[Tab - Primeira Parte - Estrofe 1]

Parte 1 de 2
   Db               Ebm7/A
E|------------------------------------------|
B|---2-2-2-2-2-2-2----4-4-4-4-4-4-4---------|
G|---1-1-1-1-1-1-1----6-6-6-6-6-6-6---------|
D|---3-3-3-3-3-3-3----4-4-4-4-4-4-4---------|
A|-4----------------0-----------------------|
E|------------------------------------------|

Parte 2 de 2
   Db               B7(2)     F
E|--------------------2-2-2-----------------|
B|---2-2-2-2-2-2-2----2-2-2-----1-1-1-------|
G|---1-1-1-1-1-1-1----2-2-2-----2-2-2-------|
D|---3-3-3-3-3-3-3--------------3-3-3-------|
A|-4----------------2-----------------------|
E|----------------------------1-------------|

           Db
Lembre de mim
         Ebm7/A
Hoje eu tenho que partir
        Db
Lembre de mim
      B7(2)        F        
Se esforce pra sorrir

[Tab - Primeira Parte - Estrofe 2]

Parte 1 de 2
   Bbm7                 Abm7     Db7
E|---6--6-----------------------------------|
B|---6--6--9--9--6--6-----4-4-4----2-2-2----|
G|---------6--6--6--6-----4-4-4----4-4-4----|
D|------------------------4-4-4----3-3-3----|
A|-------------------------------4----------|
E|-6--------------------4-------------------|

Parte 2 de 2
   Gb  Frase 1           A5-      Gb/Ab
E|------------------------------------------|
B|-----9--9---7-7--6-6-----2-2-2----2-2-2---|
G|-----10-10--8-8--6-6-----2-2-2----3-3-3---|
D|-------------------------1-1-1----4-4-4---|
A|-9---------------------0------------------|
E|--------------------------------4---------|

       Bbm7
Não importa a distância
       Abm7        Db7
Nunca vou te esquecer
    Gb   Frase 1
Cantando a nossa música
    A5-            Gb/Ab      
O amor só vai crescer

[Segunda Parte]

[Tab - Segunda Parte - Estrofe 1]

Parte 1 de 2
   Db               Ebm7/A
E|------------------------------------------|
B|---2-2-2-2-2-2-2----4-4-4-4-4-4-4---------|
G|---1-1-1-1-1-1-1----6-6-6-6-6-6-6---------|
D|---3-3-3-3-3-3-3----4-4-4-4-4-4-4---------|
A|-4----------------0-----------------------|
E|------------------------------------------|

Parte 2 de 2
   Db               Abm7      Db7(9)
E|------------------------------------------|
B|---2-2-2-2-2-2-2----4-4-4-----4-4-4-------|
G|---1-1-1-1-1-1-1----4-4-4-----4-4-4-------|
D|---3-3-3-3-3-3-3----4-4-4-----3-3-3-------|
A|-4--------------------------4-------------|
E|------------------4-----------------------|

           Db
Lembre de mim
          Ebm7/A
Não sei quando vou voltar
        Db
Lembre de mim
          Abm7         Db7(9)
Se um violão você escutar

[Tab - Segunda Parte - Estrofe 2]

Parte 1 de 3
   Gb  Frase 2             Fm7  F7/A  Bbm A
E|-----9--9---8--8---6-6----------1---------|
B|-----11-11--9--9---7-7---1----1-----2---2-|
G|-------------------------1----------3---2-|
D|-----11-11--10-10--8-8---1----1-----3---2-|
A|-9----------------------------0-----1---0-|
E|-------------------------1----------------|

Parte 2 de 3
   A7M(5-) 
E|-4-----------5--5---9---11----------------|
B|-2---/5--5---5--5---10--------------------|
G|-2---/6--6--------------------------------|
D|-1----------------------------------------|
A|-0----------------------------------------|
E|------------------------------------------|

Parte 3 de 3
   Ab   Frase 3           Db
E|------------------------1-----------------|
B|------------------------2-----------------|
G|------1----2----2-------1-----------------|
D|------2----2----4-------3-----------------|
A|------------------------4-----------------|
E|-4----------------------------------------|

Gb   Frase 2
Ele com seu triste canto
 Fm     F7/A  Bbm  A
Te acompa_nhará
    A7M(5-)                      
E até que eu possa te abraçar
Ab  Frase 3   Db       
   Lembre de mim
00:00 / 00:00
Outros vídeos desta música
Repetir
Outros vídeos desta música
Composição de Kristen Anderson-Lopez / Robert Lopez
284.591 exibições
  • Simplificar cifra
    • ½ Tom
    • A
    • Bb
    • B
    • C
    • Db
    • D
    • Eb
    • E
    • F
    • F#
    • G
    • Ab
  • Adicionar à lista

    0 comentários

    Ver todos os comentários

    Entre para oCifra Club PRO

    Tenha acesso a benefícios exclusivos no App e no Site

    • Chega de anúncios

    • Prioridade de compra em lançamentos

    • Mais recursos no app do Afinador

    • Atendimento Prioritário

    • Descontos nos produtos Cifra Club

    • Ajude a produzir mais conteúdo

    00:00 / 00:00
    Capítulos
    • Apresentação
    • Tocando a Música
    • Acordes Primeira Parte - Estrofe 1
    • Ensinando Primeira Parte - Estrofe 1
    • Acordes Primeira Parte - Estrofe 2
    • Ensinando Primeira Parte - Estrofe 2
    • Acordes Segunda Parte - Estrofe 1
    • Ensinando Segunda Parte - Estrofe 1
    • Acordes Segunda Parte - Estrofe 2
    • Ensinando Segunda Parte - Estrofe 2
    • Encerramento

    Cifra Club Pro

    Aproveite o Cifra Club com benefícios exclusivos e sem anúncios
    Cifra Club Pro
    Aproveite o Cifra Club com benefícios exclusivos e sem anúncios
    OK