Cifra Club

Acoustic

Yngwie Malmsteen

Cifra: Versão 4 (violão e guitarra)
tom: B
                                                                                  
D#||----------0-0-0-0-0-0-0-0-0-0-0-0-|--12-12-8-8-12-12-0-0-10-10-7-7-10-10-0-0-|
A#||--0-0-0-0-------------------------|------------------------------------------|
F#||----------------------------------|------------------------------------------|
C#||----------------------------------|------------------------------------------|
G#||----------------------------------|------------------------------------------|
D#||----------------------------------|------------------------------------------|
                                                                      
--8-8-5-5-8-8-0-0-7-7-3-3-7-7-----|--------------5-----5-7---5-7-8-5-|
------------------------------0-0-|--5-7-8-5-7-8---7-8-----8---------|
----------------------------------|----------------------------------|
----------------------------------|----------------------------------|
----------------------------------|----------------------------------|
----------------------------------|----------------------------------|
                                                                                   
--8-5-----5---------------------5-|-------7-10-------9-12-------11-14-------12-15-|
------7-----7-----7-----------7---|-----9---------11---------13----------14-------|
--------8-----8-5---8-5---5-8-----|--10--------12---------14----------15----------|
------------------------7---------|-----------------------------------------------|
----------------------------------|-----------------------------------------------|
----------------------------------|-----------------------------------------------|
                                                                                       
---15---15-------14-------12-------10------|--7/12-12p10p8----------------------------|
-----------14-------13-------11-------9----|---------------12p10p8--------------------|
--------------15-------14-------12------10-|-----------------------11p9p7-------------|
-------------------------------------------|------------------------------10p9p7------|
-------------------------------------------|-------------------------------------10p9p|
-------------------------------------------|------------------------------------------|
                                                                    
------------------------12----|------------7h12p7-----------7h12p7-|
------------------------12----|----------8--------8-------8--------|
------------------------12----|--------9------------9--------------|
------------------------------|------9----------------9------------|
--7---------------------------|----7--------------------7----------|
----10p8p7p5p3p2-0-0----------|--0---------------------------------|
                                                                                  
----7h12p7---7h12p7----9h15p9----9h15p9-|------7h10-----7h10------8h12------8h12-|
--8--------8--------10--------10--------|----8--------8--------10--------10------|
----------------------------------------|--7--------7--------9---------9---------|
----------------------------------------|----------------------------------------|
----------------------------------------|----------------------------------------|
----------------------------------------|----------------------------------------|
                                                                                              
--------10h14-------10h14-------12h15-------12h15-|--------14h17-------14h17-------15h19/----|
-----12----------12----------13----------13-------|-----15----------15----------17-----------|
--11----------11----------12----------12----------|--14----------14----------16--------------|
--------------------------------------------------|------------------------------------------|
--------------------------------------------------|------------------------------------------|
--------------------------------------------------|------------------------------------------|
                                                                                  
--14------15----------|--12------14/---------|--10-------------------------------|
--13------15----------|--12------x-----------|-----10------------------12-10-----|
--14------16----------|--12------14----------|--------11-----------9---------12--|
----------------------|--x-------x-----------|-----------12/-----9---------------|
----------------------|----------------------|-----------------------------------|
----------------------|----------------------|-----------------------------------|
                                                                                  
---------------------------------|--12-11-12-9-12----12----11-9-11----11----11---|
---------------------------------|----------------12----10---------12----10----9-|
--11-12-11-9--8~-6-8-9~---9--9-9-|-----------------------------------------------|
---------------------------------|-----------------------------------------------|
---------------------------------|-----------------------------------------------|
---------------------------------|-----------------------------------------------|
                                                                                   
--12-11-12-9-12----12----11-9-11----11----11---|--------8-7-5-----------7-5-------|
----------------12----10---------12----10----9-|--5-7-8-------8-7---5-7-----8-7-5-|
-----------------------------------------------|------------------7---------------|
-----------------------------------------------|----------------------------------|
-----------------------------------------------|----------------------------------|
-----------------------------------------------|----------------------------------|
                                                                      
--------5-------------------------|----------------------------------|
------5---8-7-5---------8-7-5-----|--------7-5-------------5---------|
--5-7-----------7-4-5-7-------7-5-|----4-5-----7-5-4-----4---7-5-4---|
----------------------------------|--7---------------5-7-----------7-|
----------------------------------|----------------------------------|
----------------------------------|----------------------------------|
                                                                      
----------------------------------|----------------------------------|
----------------------------------|----------------------------------|
--------7-5-4-----------5-4-------|--------4-------------------------|
--4-5-7-------7-5---4-5-----7-5-4-|------4---7-5-4---------7-5-4-----|
------------------7---------------|--5-7-----------7-3-5-7-------7-5-|
----------------------------------|----------------------------------|
                                                                                     
----------------------------------|--------------12----------|-----------------7----|
----------------------------------|--------------------12----|------------7---------|
----------------------------------|--------------------------|----------------------|
--------5-4-2-----------4-2-0-----|--------------------------|-------7--------------|
--2-3-5-------5-3-0-2-3-------3-2-|--0-----------------------|--7-------------------|
----------------------------------|----3-2-0-----------------|----------------------|
                                                                                                   
--5------------------|-------------------|------------------|-------------------------------------|
---------------------|--5~---------------|------------------|-------------------------------------|
---------------------|-------------------|------------------|--12---------------------------------|
-----------7---------|-------------------|------------------|--12---------------------------------|
----------------7----|-------------------|------------------|--10--------9~---9h10p9h10p9h10p9h10-|
---------------------|-------------------|------------------|-------------------------------------|
                                                                                                    
-------------------12----------|-------12--8---------------|---------------------------------------|
-----------12----------12------|--------------10--8--7--8--|--7h8-7h8p7h8p7h8p7h8p7h8-8------------|
-------12------------------12--|---------------------------|-----------------------------9p-7------|
-------------------------------|---------------------------|---------------------------------------|
-------------------------------|---------------------------|--5------------------------------------|
--0------------10--------------|--8-----------9------------|-----------------------------8---------|
                                                                                         
--10----------------10------|-----7----------------10~-8--|-----------------------------|
----------------------------|---------------10--9---------|--10-------------------------|
----------9--10---9-----10--|--9-----10~-9----------------|-----------------------------|
----------------------------|-----------------------------|--7~------6--7--9--10--5h7p5-|
-------------0--------------|-----------------------------|-----------------------------|
--7-------------------------|---------------0-------------|-----------------------------|
                                                                                             
-----5--------------8--7--|----------12---------7--9--10--|----------------------7-8-7------|
--------5-----8p-7--------|--8---12-----------------------|--8h10p8-7--8----8-10--------10--|
-----------7--------------|--------------12---------------|---------------------------------|
--4~----------0-----------|-------------------------------|---------------------------------|
--------------------------|--10--------------9------------|--7------------------------------|
--------------------------|-------------------------------|---------------------------------|
                                                                                 
-------------------------------------------||-----------------------------------|
--10-8-7h8p7h8p7------7-8-7h8--8h10p8p7----||-----------------------------------|
------------------9-9-------------------9~-||*--7h9p7h9p7h9p7h9p7h9p7h9p7h9p7h9-|
-------------------------------------------||*----------------------------------|
-------------------------------------------||-----------------------------------|
-------------------------------------------||-----------------------------------|
                                                                        
-----------------------------------||----------------------------------|
-----------------------------------||----------------------------------|
--7h9p7h9p7h9p7h9p7h9p7h9p7h9p7h9p*||--8-9-8-9-8-9-8-9-8-9-8-9-8-9-8-9-|
----------------------------------*||----------------------------------|
-----------------------------------||----------------------------------|
-----------------------------------||----------------------------------|
                                                                                  
----------------------------------|----------------------------------------------|
----------------------------------|----------------------------------------10h12h|
--8-9-8-9-8-9-8-9-8-9-8-9-8-9-8-9-|--9h11h12-9h11h12-9h11h12-9h11h12-11h12-------|
----------------------------------|----------------------------------------------|
----------------------------------|----------------------------------------------|
----------------------------------|----------------------------------------------|
                                                                                                 
---------------------------------------8h10h12-|--12p10----10-----------12p10----10----------12-|
--13---------10h12h13---------10h12h13---------|--------12----13p10-12--------12----13p10-12----|
-----9h11h12----------9h11h12------------------|------------------------------------------------|
-----------------------------------------------|------------------------------------------------|
-----------------------------------------------|------------------------------------------------|
-----------------------------------------------|------------------------------------------------|
                                                                          
--12--12--12----12~-------|--14/12----12-----------14/12----12-----------|
--------------------------|--------13----15-12-13--------13----15-12-13--|
--------------------------|----------------------------------------------|
--------------------------|----------------------------------------------|
--------------------------|----------------------------------------------|
--------------------------|----------------------------------------------|
                                                                                        
--12/10----10-----------12-10----10-----------|--10/8----8----------10/8----8----------|
--------12----13-10-12--------12----13-10-12--|-------10---12-8-10-------10---12-8-10--|
----------------------------------------------|----------------------------------------|
----------------------------------------------|----------------------------------------|
----------------------------------------------|----------------------------------------|
----------------------------------------------|----------------------------------------|
                                                                          
--8/7---7---------8/7---7---------|----------------8p7--------8----------|
------8---10-7-8------8---10-7-8--|------8h10p8-10-----10p8p7---10p8p7---|
----------------------------------|--7h9-------------------------------9-|
----------------------------------|--------------------------------------|
----------------------------------|--------------------------------------|
----------------------------------|--------------------------------------|


                                                                                   
----------------8p7--------8---12--|--12/10----10-----------12-10----10-----------|
------8h10p8h10-----10p8p7---------|--------12----13-10-12--------12----13-10-12--|
--7h9------------------------------|----------------------------------------------|
-----------------------------------|----------------------------------------------|
-----------------------------------|----------------------------------------------|
-----------------------------------|----------------------------------------------|


                                                                                         
--------------------------|--12--10-8-7------------------------|-------------------7----|
--10p8p7h8p7--------------|-------------10-8-7-----------------|-----------------7------|
-------------7h9~---------|--------------------9-7-------------|---------------7--------|
--------------------------|------------------------10-9-7------|-------------9----------|
--------------------------|-------------------------------9-7--|-----------9------------|
--------------------------|------------------------------------|--7---------------------|


                                                                                      
------7h12p7------------|-----------7-------------7----|--7/-14------15--14--12--11--|
----7-------------------|------8-10----------8-10------|-----------------------------|
--7---------------------|----9-------------9-----------|-----------------------------|
------------------------|--9-------------9-------------|-----------------------------|
------------------------|------------------------------|-----------------------------|
------------------------|------------------------------|-----------------------------|


                                                                                              
---------------------------------|--------------------------------|--------------------------|
--13--12--10------12------12-----|--12------12------12------0-----|--0-----0-----0-----0-----|
--------------12------11------9--|-----------------------------4--|-----2--------------------|
---------------------------------|------12------10------12--------|-----------5-----2-----4--|
---------------------------------|--------------------------------|--------------------------|
---------------------------------|--------------------------------|--------------------------|


                                                                                                    
--------------------------|--------------------------|------------------------|--12----------------|
--0-----0-----0-----0-----|--0-----0-----0-----0-----|----------0-0-12--------|--12----------------|
--------------------------|--------------------------|------------------12----|--------------------|
-----------2--------------|--------------------------|------------------------|--------------------|
-----5-----------3-----5--|-----2-----3-----0-----2~-|------------------------|--------------------|
--------------------------|--------------------------|------------------------|--------------------|


                                                                      
----------------------------------|----------------------------------|
--8-5-0-5-8-0-5-8-8-5-0-8-8-0-5-8-|--7-4-0-4-7-0-4-7-7-4-0-4-7-0-4-7-|
----------------------------------|----------------------------------|
----------------------------------|----------------------------------|
----------------------------------|----------------------------------|
----------------------------------|----------------------------------|


                                                                      
----------------------------------|----------------------------------|
--6-3-0-3-6-0-3-6-6-3-0-3-6-0-3-6-|--5-2-0-2-5-0-2-5-5-2-0-2-5-0-2-5-|
----------------------------------|----------------------------------|
----------------------------------|----------------------------------|
----------------------------------|----------------------------------|
----------------------------------|----------------------------------|


                                                                               
--8-5-0-5-8-0-5-8-8-5-0-5-8-0-5-8-|--12-8-0-8-12-0-12-8-15-15-15-15-15-15-15--|
----------------------------------|-------------------------------------------|
----------------------------------|-------------------------------------------|
----------------------------------|-------------------------------------------|
----------------------------------|-------------------------------------------|
----------------------------------|-------------------------------------------|


                                                                                                  
--15-12-----12-15-12------------8--|--------5---------------8--5--|--8~-----5-8-7-5--------------|
------------------------14----7----|------4------7--7-7-7-7-------|-------7---------8-7-5-4-0----|
--------15------------------8------|----5--------8----------------|---------------------------2~-|
-----------------------------------|------------------------------|------------------------------|
-----------------------------------|------------------------------|------------------------------|
-----------------------------------|------------------------------|------------------------------|


                                                                                          
--0-----------------|--0---------------------|-------0----------12----|------------------|
--0-----------------|----0-------------------|--0---------12----------|------------------|
-----------8~-------|------0-----------------|------------------------|------------------|
--------------------|--------2---------------|------------------------|------------------|
--------------------|----------2-------------|------------------------|------------------|
--------------------|------------0-----------|------------------------|------------------|


                                                                                                 
--7h8p7h8p7h8p7h8p7h8p7h8p7h8p7h8p|--7h8p7h8p7h8p7h8p7h8p7h8p7h8p7h8-|--7----7-7-x--7----7-7-x--|
----------------------------------|----------------------------------|--7----7-7-x--7----7-7-x--|
----------------------------------|----------------------------------|--8----8-8-x--8----8-8-x--|
----------------------------------|----------------------------------|--7----7-7-x--7----7-7-x--|
----------------------------------|----------------------------------|--9----9-9-x--9----9-9-x--|
----------------------------------|----------------------------------|--7----7-7-x--7----7-7-x--|


                                                         
--7----7-7-x--7--7-7-7-7-7-7-|--7----7-7-x--7----7-7-x--|
--7----7-7-x--7--7-7-7-7-7-7-|--7----7-7-x--7----7-7-x--|
--8----8-8-x--8--8-8-8-8-8-8-|--8----8-8-x--8----8-8-x--|
--7----7-7-x--7--7-7-7-7-7-7-|--7----7-7-x--7----7-7-x--|
--9----9-9-x--9--9-9-9-9-9-9-|--9----9-9-x--9----9-9-x--|
--7----7-7-x--7--7-7-7-7-7-7-|--7----7-7-x--7----7-7-x--|


                                                                           
--14--12h14p12p11h12p11----11------------------|--7----7-7-x--7----7-7-x--|
------------------------13----13p12h13p10h12p9-|--7----7-7-x--7----7-7-x--|
-----------------------------------------------|--8----8-8-x--8----8-8-x--|
-----------------------------------------------|--7----7-7-x--7----7-7-x--|
-----------------------------------------------|--9----9-9-x--9----9-9-x--|
-----------------------------------------------|--7----7-7-x--7----7-7-x--|


                                                                                                   
--7----7-7-x--7--7-7-7-7-7-7-|--7----7-7-x--7----7-7-x--|----------11h12p11-----------------------|
--7----7-7-x--7--7-7-7-7-7-7-|--7----7-7-x--7----7-7-x--|-------12----------10--------------------|
--8----8-8-x--8--8-8-8-8-8-8-|--8----8-8-x--8----8-8-x--|----11----------------11p9p8---8h9p8-----|
--7----7-7-x--7--7-7-7-7-7-7-|--7----7-7-x--7----7-7-x--|--9--------------------------9-------9---|
--9----9-9-x--9--9-9-9-9-9-9-|--9----9-9-x--9----9-9-x--|---------------------------------------9-|
--7----7-7-x--7--7-7-7-7-7-7-|--7----7-7-x--7----7-7-x--|-----------------------------------------|


                                                                                              
--------------7--------|--------7-------------|----------------------|-----------------------|
--------------7--------|------7---------------|-----8------7h-8------|-----------------------|
-----------------------|----8-----------------|----------------------|--8h-9p-8--------6h-8--|
-----------------------|--9-------------------|----------------------|-----------------------|
--7p6h7----------------|----------------------|--7-------------------|--0--------------------|
--------7--------------|----------------------|----------------------|-----------------------|


                                                                                              
-----------------------|-------------------|-------------------------|-------6--7--9---------|
-------------8----5----|--4~---------------|--5----------------------|--7--------------------|
--9--------------------|-------------------|--5----5h7p5p4h-5--------|--5--------------------|
--------9--------------|-------------------|--5----------------------|--7--------------------|
--10-------------------|-------------------|--7----------------------|--5--------------------|
-----------------------|--4~---------------|--5----------------------|--------------------0--|


                                                                
----------------------|---------------------|------------------|
--8---------7---------|--5------------------|------------------|
--9---------8---------|--6---------8~-------|------------------|
----------------------|------------9~-------|------------------|
----------------------|---------------------|------------------|
---------0---------0--|---------0-----------|------------------|


                                                                                                  
--14--12--11h12p11----11---------------------|---------------------------|--7--------------12----|
-------------------13----13-12-10h12p10-9-10-|---------------------------|-------7---------------|
---------------------------------------------|--11p8---------------------|-----------------------|
---------------------------------------------|-------10p7----------------|------------5----------|
---------------------------------------------|------------9p6------------|-----------------------|
---------------------------------------------|----------------7----------|-----------------------|


                                                                              
-------------------|------------------|------------------|------------------||
-------------------|------------------|------------------|------------------||
-------------------|------------------|------------------|------------------||
-------------------|------------------|------------------|------------------||
-------------------|------------------|------------------|------------------||
--0----------------|------------------|------------------|------------------||
00:00 / 00:00
Outros vídeos desta música
Repetir
Outros vídeos desta música
Compositor não encontrado.
Colaboração e revisão:
  • peterson gusmão
133 exibições
    • ½ Tom
    • A
    • Bb
    • B
    • C
    • Db
    • D
    • Eb
    • E
    • F
    • F#
    • G
    • Ab
  • Adicionar à lista

    0 comentários

    Ver todos os comentários

    Conseguiu tocar?

    0 Tocaram 0 Ainda não

    Grave um vídeo tocando Acoustic e nos envie!

    00:00 / 00:00

    Cifra Club Pro

    Aproveite o Cifra Club com benefícios exclusivos e sem anúncios
    Cifra Club Pro
    Aproveite o Cifra Club com benefícios exclusivos e sem anúncios
    OK