Cifra Club

Aprenda

Gossip

You Me At Six

Cifra: Principal (violão e guitarra)
Tom: A
Intro:
E|-------------------------------------------------|
B|-------------------------------------------------|
G|-------------------------------------------------|
D|-7-7-9--77--7-9-7-9-------5-5-7--55--5-7-5-7-----|
A|-7-7-9--77--7-9-7-9-x2----5-5-7--55--5-7-5-7-x2--|
D|-7-7-9--77--7-9-7-9-------5-5-7--55--5-7-5-7-----|

E|--------------------------------------------------------|
B|--------------------------------------------------------|
G|-9-9-11--99--9/11-9/11---------7-7-9---77--7/9--7/9-----|
D|-x-x-x---xx- x/x- x/x---x2-----x-x-x---xx--x/x--x/x---x2|
A|-7-7-9---77- 7/9- 7/9----------5-5-7---55--5/7--5/7-----|
D|--------------------------------------------------------|

Refrão:
E|----------------------------------------------------------------------------|
B|----------------------------------------------------------------------------|
G|----------------------------------------------------------------------------|
D|-22222222-44444444--77777777-9999-7777---22222222-44444444-7777777777777777-| (2x)
A|-22222222-44444444--77777777-9999-7777---22222222-44444444-7777777777777777-|
D|-22222222-44444444--77777777-9999-7777---22222222-44444444-7777777777777777-|

E|------------------------------------------------------|
B|------------------------------------------------------|
G|-9--11--16--18--21--18-------14--13--16--18--21--18---|
D|-x---x---x---x---x---x--------x---x---x---x---x---x---|
A|-7---9--14--16--19--16-------12--11--14--16--19--16---|
D|------------------------------------------------------|
Colaboração e revisão:
  • Vinícius Morais
397 exibições
    • ½ Tom
    • A
    • Bb
    • B
    • C
    • Db
    • D
    • Eb
    • E
    • F
    • F#
    • G
    • Ab
  • Adicionar à lista

    0 comentários

    Mostrar mais comentários

    Conseguiu tocar?

    0 Tocaram 0 Ainda não

    Grave um vídeo tocando Gossip e mande pra gente!

    00:00 / 00:00
    outros vídeos desta música
    repetir qualidade Automático
    Outros vídeos desta música
    00:00 / 00:00
    Automático

    Cifra Club Pro

    Aproveite o Cifra Club com benefícios exclusivos e sem anúncios
    Cifra Club Pro
    Aproveite o Cifra Club com benefícios exclusivos e sem anúncios
    OK