Cifra Club

Aprenda

Bebi Minha Bicicleta

Zé Neto e Cristiano

Cifra: Aula-pocket (violão e guitarra)
tom: C
[Intro] C  G/B  Am7  F9

[Primeira parte]

                C
Cortaram minha luz
                G/B
Perdi o meu emprego
             Am7
A minha geladeira
            F9
É só ovo e gelo

[Pré-refrão]

   Dm                        F9
Depois da sacanagem que ela fez comigo
    C                           G
Fiquei com coração e o bolso falido
                 F9
Com o que aconteceu

Até bala perdida tá tendo 
              G
Mais rumo que eu

[Refrão]

                 C
Bebi minha bicicleta
            G
Bebi minha TV
                       Am
Só não bebo o meu celular
                               F
Porque eu preciso ligar pra você

                    C
Eu bebi minha bicicleta
            G
Bebi minha TV
                       Am
Só não bebo o meu celular
                               F
Porque eu preciso ligar pra você
                    C
Eu bebi minha bicicleta

[Solo] C  G  Am  F

[TAB - Solo]

Parte 1 de 2
E|-15-15-15-13-12-12----------/8--8-8-8-8-7--5-5-------|
B|--------------------15-15----------------------------|
G|----------------------------/9--9-9-9-9-7--5-5-------|
D|-----------------------------------------------------|
A|-----------------------------------------------------|
E|-----------------------------------------------------|

Parte 2 de 2
E|-/8--8-8-8-8-7--5-5----------------------------------|
B|---------------------------5h6p5---8h10p8------------|
G|-/9--9-9-9-9-7--5-5---5----5h7p5---9-----------------|
D|----------------------5h7----------------------------|
A|-----------------------------------------------------|
E|-----------------------------------------------------|

[Primeira parte]

                C
Cortaram minha luz
                G/B
Perdi o meu emprego
             Am7
A minha geladeira
            F9
É só ovo e gelo

[Pré-refrão]

   Dm                        F9
Depois da sacanagem que ela fez comigo
    C                           G
Fiquei com coração e o bolso falido
                 F9
Com o que aconteceu

Até bala perdida tá tendo 
              G
Mais rumo que eu

[Refrão]

                 C
Bebi minha bicicleta
            G
Bebi minha TV
                       Am
Só não bebo o meu celular
                               F
Porque eu preciso ligar pra você

                    C
Eu bebi minha bicicleta
            G
Bebi minha TV
                       Am
Só não bebo o meu celular
                               F
Porque eu preciso ligar pra você
                    C
Eu bebi minha bicicleta


                 C
Bebi minha bicicleta
            G
Bebi minha TV
                       Am
Só não bebo o meu celular
                               F
Porque eu preciso ligar pra você

                    C
Eu bebi minha bicicleta
            G
Bebi minha TV
                       Am
Só não bebo o meu celular
                               F
Porque eu preciso ligar pra você
                    C
Eu bebi minha bicicleta

[Solo] C  G  Am  F  C

[TAB Solo final]

Parte 1 de 2
E|-15-15-15-13-12-12----------/8--8-8-8-8-7--5-5-------|
B|--------------------15-15----------------------------|
G|----------------------------/9--9-9-9-9-7--5-5-------|
D|-----------------------------------------------------|
A|-----------------------------------------------------|
E|-----------------------------------------------------|

Parte 2 de 2
E|-/8--8-8-8-8-7--5------------------------------------|
B|--------------------------/10--8--6--5--6--6/8-------|
G|-/9--9-9-9-9-7--5--5---5--/10--9--7--5--7--7/9-------|
D|-------------------5h7-5-----------------------------|
A|-----------------------------------------------------|
E|-----------------------------------------------------|
Composição de Denner Ferrari / Kid Lima / Rafael Quadros / Vinni Miranda / Waléria Leão
Colaboração e revisão:
  • Caico Antunes
3.519 exibições
    • ½ Tom
    • A
    • Bb
    • B
    • C
    • Db
    • D
    • Eb
    • E
    • F
    • F#
    • G
    • Ab
  • Adicionar à lista

    0 comentários

    Ver todos os comentários

    Conseguiu tocar?

    2 Tocaram 0 Ainda não

    Grave um vídeo tocando Bebi Minha Bicicleta e nos envie!

    00:00 / 00:00
    outros vídeos desta música
    repetir qualidade Automático
    Outros vídeos desta música
    00:00 / 00:00
    Automático

    Cifra Club Pro

    Aproveite o Cifra Club com benefícios exclusivos e sem anúncios
    Cifra Club Pro
    Aproveite o Cifra Club com benefícios exclusivos e sem anúncios
    OK