Cifra Club

Aprenda

Mentes Tão Bem

Zezé Di Camargo e Luciano

Cifra: Principal (violão e guitarra)
Tom: G
[Intro] G  D11/F#  D/F#  D9/F#  D/F#
        G  D/F#  Em  D/F#

   G
E|-------3--------3--------3--------3------|
B|-------3--------3--------3--------3------|
G|-----0--------0--------0--------0--------|
D|---0--------0--------0--------0----------|
A|-----------------------------------------|
E|-3--------3--------3--------3------------|

   D11/F#  D/F#      D9/F#     D/F#
E|-------3-------2---------0---------------|
B|-------3-------3---------3---------3-----|
G|-----2-------2---------2---------2-------|
D|---0-------0---------0---------0---------|
A|-----------------------------------------|
E|-2-------2---------2---------2-----------|

   G                 D/F#
E|-----------------------------------------|
B|-------0--------0--------3--------3------|
G|-----0--------0--------2--------2--------|
D|---0--------0--------0--------0----------|
A|-----------------------------------------|
E|-3--------3--------2--------2------------|

   Em              D/F#
E|-----------------------------------------|
B|-------0-------0-------3-----------------|
G|-----0-------0-------2-------------------|
D|---2-------2-------0-------0-------------|
A|-----------------------------0-2---------|
E|-0-------0-------2-------2---------------|

[Solo]

E|--------7---8p7--5-----------------------|
B|-----8------8----7--3--------------------|
G|--7--------------------------------------|
D|--9--9--9-----------4--------------------|
A|-----------------------------------------|
E|-----------------------------------------|

[Primeira Parte]

   C               D9/F#    D/F#
E|------------------------0----------------|
B|-------1-------1----------------3--------|
G|-----0-------0-------2--------2----------|
D|---2-----0h2-------0--------0------------|
A|-3---------------------------------------|
E|-----------------2--------2--------------|

   G                 D/F#
E|-----------------------------------------|
B|-------0--------0--------3--------3------|
G|-----0--------0--------2--------2--------|
D|---0--------0--------0--------0----------|
A|-----------------------------------------|
E|-3--------3--------2--------2------------|

   C/E     C        D5(9)   D/F#
E|------------------------0----------------|
B|-------1-------1------3----------3-------|
G|-----0-------0------2----------2---------|
D|---2-------2------0----------0-----------|
A|---------3-------------------------------|
E|-0------------------------2--------------|

   G                       D/F#
E|-------3---------------------------------|
B|---------------0--------------3----------|
G|-----0-------0-------0-2-----------------|
D|---0-------0-------0-------0-------------|
A|-----------------------------------------|
E|-3-------3-------3-------2---------------|

   Em              D4(6)
E|-------3-------3-------3-------3---------|
B|-----0-------0-------0-------0-----------|
G|---0-------0-------2-------2-------------|
D|-2-------2-------0-------0---------------|
A|-----------------------------------------|
E|-----------------------------------------|

   C                 G7M/B
E|--------3-------3---------2--------------|
B|------1-------1---------3--------3-------|
G|----0-------0---------0--------0---------|
D|-----------------------------------------|
A|-3--------3--------2---------2-----------|
E|-----------------------------------------|

   Am               Am/G
E|-0---------------------------------------|
B|-------1-------1--------1---------1------|
G|-----2-------2--------2---------2--------|
D|---2-------2--------2---------2----------|
A|-0-------0-------------------------------|
E|------------------3---------3------------|

   D/F#
E|-------------------3p2-------------------|
B|-------3--------3--x---3-----------------|
G|-----2--------2----x-----2p0-------------|
D|---0--------0------x---------4-2p0-------|
A|-----------------------------------------|
E|-2--------2------------------------------|

(Variação)

   D/F#
E|---------------0----0h2------------------|
B|-------3---------3--3--------------------|
G|-----2--------------2--------------------|
D|---0--------0-------0--------------------|
A|-----------------------------------------|
E|-2--------2------------------------------|

C                     D9/F#    D/F#   G    D/F#
  Me promete amor sincero uma vida inteira
C/E            C          D5(9)       D/F#    G  D/F#
    Que com você o meu inverno vira primavera
Em            D4(6)             C
   Vive me jurando estar apaixonada
            G7M/B                Am
Prometeu o mundo e nunca me deu nada
Am/G                  D/F#
     Você não cumpre nada

C                         
  Que se eu seguir o seu 
 D9/F#           D/F#   G    D/F#
Caminho eu chegarei ao céu
C/E            C              D5(9)        D/F# G  D/F#
    Eu vou provando o gosto amargo do seu doce mel
Em                   D4(6)               C
   Na mentira das palavras entro no seu jogo
           G7M/B             Am
Procurando água só encontro fogo
Am/G                 D/F#
     E queimo nesse fogo

[Segunda Parte]

   C                 D5(9)   D/F#
E|--------0----------------0---------------|
B|----------------1------3---------3-------|
G|-----0--------0------2---------2---------|
D|---2--------2------0---------0-----------|
A|-3--------3------------------------------|
E|---------------------------2-------------|

   G        D/F#     Em        D4
E|-------------------------3---------3-----|
B|-------0--------3------0---------3-------|
G|-----0--------2------0---------0---------|
D|---0--------0----------------0-----------|
A|-----------------------------------------|
E|-3--------2--------0---------------------|

   C                 D5(9)   D/F#
E|--------0----------------0---------------|
B|----------------1------3---------3-------|
G|-----0--------0------2---------2---------|
D|---2--------2------0---------0-----------|
A|-3--------3------------------------------|
E|---------------------------2-------------|

   G        D/F#     Em        D4
E|-------------------------3---------3-----|
B|-------0--------3------0---------3-------|
G|-----0--------2------0---------0---------|
D|---0--------0----------------0-----------|
A|-----------------------------------------|
E|-3--------2--------0---------------------|

   C
E|-------3-------0-------------------------|
B|-----------------------1-------1---------|
G|-----0-------0-------0-------0-----------|
D|---2-------2-------2-------2-------------|
A|-3-------3-------3-------3---------------|
E|-----------------------------------------|

   D4      D
E|-------3-----2---------------------------|
B|-----3-----------------------------------|
G|---2-------2----2p0----------------------|
D|-0-------0----------4-2p0----------------|
A|--------------------------0-2------------|
E|-----------------------------------------|

             C               D5(9)
Quando você fala, tão apaixonada
       D/F#   G          D/F#     Em
"Meu amor eu sempre estarei contigo"
      D4      C                     D5(9)
Olho nos seus olhos me emociono e choro
        D/F#  G           D/F#  Em
Sei que é mentira mas me sinto vivo
       D4    C                     D4   D
Mesmo sendo falso o ar, sinto que respiro

[Refrão]

   C
E|-----------------------------------------|
B|-------1--------1--------1--------1------|
G|-----0--------0--------0--------0--------|
D|---2--------2--------2--------2----------|
A|-3--------3--------3--------3------------|
E|-----------------------------------------|

   D5(9)            D/F#
E|-------0---------------------------------|
B|-----3-----3------------3-------3--------|
G|---2-----------2------2-------2----------|
D|-0-------0---0------0-------0------------|
A|-----------------------------------------|
E|------------------2-------2--------------|

   G                 D6(11)/F#
E|-------3--------3--------3--------3------|
B|-----3--------3--------0--------0--------|
G|---0--------0--------2--------2----------|
D|-----------------------------------------|
A|-----------------------------------------|
E|-3--------3--------2--------2------------|

   Em7                D5(9)
E|--------3--------3--------0--------0-----|
B|------3--------3--------3--------3-------|
G|----0--------0--------2--------2---------|
D|--------------------0--------0-----------|
A|-----------------------------------------|
E|-0---------0-----------------------------|

   C
E|-----------------------------------------|
B|-------1--------1--------1--------1------|
G|-----0--------0--------0--------0--------|
D|---2--------2--------2--------2----------|
A|-3--------3--------3--------3------------|
E|-----------------------------------------|

   D5(9)            D/F#
E|-------0---------------------------------|
B|-----3-----3------------3-------3--------|
G|---2-----------2------2-------2----------|
D|-0-------0---0------0-------0------------|
A|-----------------------------------------|
E|------------------2-------2--------------|

   Em7               D4
E|-------3--------3--------3--------3------|
B|-----3--------3--------3--------3--------|
G|---0--------0--------0--------0----------|
D|-2--------2--------0--------0------------|
A|-----------------------------------------|
E|-----------------------------------------|

   A9/C#
E|-------0---------------------------------|
B|-0--------------0--------0--------0------|
G|---2----------2--------2--------2--------|
D|-----2------2--------2--------2----------|
A|-4--------4--------4--------4------------|
E|-----------------------------------------|

   C
E|-----------------------------------------|
B|-------1--------1--------1---------------|
G|-----0--------0--------0-----------------|
D|---2--------2--------2--------0-2--------|
A|-3--------3--------3--------3-----3------|
E|-----------------------------------------|

E|-------3p2-------------------------------|
B|-----3-----3-----------------------------|
G|---2---------2p0-------------------------|
D|-0---------------4-----------------------|
A|-----------------------------------------|
E|-----------------------------------------|

 C          D5(9) 
Mentes tão bem
D/F#               G  D6(11)/F#
    Que parece verdade
               Em7
O que você me fala
       D5(9)
Vou acreditando

 C          D5(9) 
Mentes tão bem
D/F#                      Em7
    Que até chego a imaginar
          D4         A9/C#  
Que não quer me enganar
                  C
Que me ama de verdade
D4  D
      Mentes tão bem

(Passagem do Refrão)

E|-----------------------------------------|
B|---------------------------0-------------|
G|-----------2---0-------0-----------------|
D|-----2-4-------------4-------------------|
A|---2---------------2---------------------|
E|-0-------0---0---0-------0---------------|

E|-3---3--2-----0--------------------------|
B|---0-------3--5--------------------------|
G|-4---4--2--0--0--------------------------|
D|-----------4--5--------------------------|
A|-----------------------------------------|
E|--------------0--------------------------|

[Segunda Parte]

             C               D5(9)
Quando você fala, tão apaixonada
       D/F#   G          D/F#     Em
"Meu amor eu sempre estarei contigo"
      D4      C                     D5(9)
Olho nos seus olhos me emociono e choro
        D/F#  G           D/F#  Em
Sei que é mentira mas me sinto vivo
       D4    C                     D4   D
Mesmo sendo falso o ar, sinto que respiro

[Refrão Final]

 C          D5(9) 
Mentes tão bem
D/F#                G   D6(11)/F#
     Que parece verdade
               Em7
O que você me fala
       D5(9)
Vou acreditando

 C          D5(9) 
Mentes tão bem
D/F#                      Em7
    Que até chego a imaginar
          D4         A9/C#
Que não quer me enganar
                  C
Que me ama de verdade
D4  D
      Você mente tão bem

( Em  A5(9) )

   Em
E|---------------0-------------------------|
B|-------0---------------0-------0---------|
G|-----0-------0-------0-------0-----------|
D|---2-------2-------2-------2-------------|
A|-----------------------------------------|
E|-0-------0-------0-------0---------------|

   A5(9)
E|----------------0------------------------|
B|-------0----------------0----------------|
G|-----2--------2-------2------------------|
D|---2--------2-------2-------2------------|
A|-0-------0--------0-------0---0-2--------|
E|-----------------------------------------|

   C
E|----------------0------------------------|
B|-------1----------------1----------------|
G|-----0-------0--------0------------------|
D|---2-------2--------2-------0-2----------|
A|-3-------3--------3-------3-----3--------|
E|-----------------------------------------|

   D
E|-2-----3p2-------------------------------|
B|---3-------3-----------------------------|
G|-----2-------2p0-------------------------|
D|-----------------0-----------------------|
A|-0---------------------------------------|
E|-----------------------------------------|

                  C   D4  D
Não me ama de verdade

Você mente tão bem

[Final] G  D11/F#  D/F#  D9/F#  D/F# 
        G  D/F#  Em  C  G 
  G
E|-------3--------3--------3--------3------|
B|-------3--------3--------3--------3------|
G|-----0--------0--------0--------0--------|
D|---0--------0--------0--------0----------|
A|-----------------------------------------|
E|-3--------3--------3--------3------------|

   D11/F#  D/F#      D9/F#     D/F#
E|-------3-------2---------0---------------|
B|-------3-------3---------3---------3-----|
G|-----2-------2---------2---------2-------|
D|---0-------0---------0---------0---------|
A|-----------------------------------------|
E|-2-------2---------2---------2-----------|

   G                 D/F#
E|-----------------------------------------|
B|-------0--------0--------3--------3------|
G|-----0--------0--------2--------2--------|
D|---0--------0--------0--------0----------|
A|-----------------------------------------|
E|-3--------3--------2--------2------------|

   Em         C
E|-----------------------------------------|
B|-------0--------------3h5-3h5p3----------|
G|-----0------------0----------------------|
D|---2----------0h2---2--------------------|
A|------------3----------------------------|
E|-0---------------------------------------|

[Solo]

E|--------7---8p7--------7-8-7h8p7---------|
B|-----8------8--------8-------------------|
G|--7--------------7h9---------------------|
D|--9--9--9--------------------------------|
A|-----------------------------------------|
E|-----------------------------------------|
Composição de Sidney Silva
880.976 exibições
  • Simplificar cifra
    • ½ Tom
    • A
    • Bb
    • B
    • C
    • Db
    • D
    • Eb
    • E
    • F
    • F#
    • G
    • Ab
  • Adicionar à lista

    0 comentários

    Mostrar mais comentários

    Conseguiu tocar?

    46 Tocaram 5 Ainda não

    Grave um vídeo tocando Mentes Tão Bem e mande pra gente!

    00:00 / 00:00
    outros vídeos desta música
    repetir qualidade Automático
    Outros vídeos desta música
    00:00 / 00:00
    Automático
    Capítulos
    • Início
    • Tocando a música
    • Acordes da Introdução e Primeira parte
    • Tocando Introdução e Primeira parte
    • Ensinando dedilhado Introdução (Parte 1)
    • Ensinando dedilhado Introdução (Parte 2)
    • Ensinando Primeira Parte (Parte 1)
    • Ensinando Primeira Parte (Parte 2)
    • Ensinando Primeira Parte (Parte 2 - variação)
    • Ensinando Solo do Início
    • Ensinando Solo Final
    • Acordes da Segunda parte
    • Tocando Segunda parte
    • Ensinando Segunda Parte
    • Acordes do Refrão
    • Tocando Refrão
    • Ensinado Refrão
    • Ensinando Passagem 1º Refrão (Parte 1)
    • Ensinando Passagem 1º Refrão (Parte 2)
    • Ensinando Passagem 2º Refrão (Parte 1 e 2)
    • Ensinando Passagem 2º Refrão (Parte 3 e 4)
    • Ensinando Final
    • Encerramento

    Cifra Club Pro

    Aproveite o Cifra Club com benefícios exclusivos e sem anúncios
    Cifra Club Pro
    Aproveite o Cifra Club com benefícios exclusivos e sem anúncios
    OK