Notificações Amigos pendentes

      Zezé Di Camargo e Luciano

      Mentes Tão Bem

      718.949 exibições
      Tom: G
      Intro: G  D11/F#  D/F#  D9/F#  D/F#
             G  D/F#  Em  D/F#
      
      Primeira Parte:
      C              D9/F#    D/F#   G       D/F#
        Me promete amor sincero uma vida inteira
      C/E          C          D5(9)       D/F#     G  D/F#
        que com você o meu inverno vira primavera
      Em           D4(6)             C
        vive me jurando estar apaixonada
                  G7M/B                Am
      prometeu o mundo e nunca me deu nada
      Am/G               D/F#
        você não cumpre nada
      
      C                          D9/F#          D/F#   G     D/F#
        Que se eu seguir o seu caminho eu chegarei ao céu
      C/E          C              D5(9)        D/F# G  D/F#
        eu vou provando o gosto amargo do seu doce mel
      Em                  D4(6)               C
        na mentira das palavras entro no seu jogo
                 G7M/B             Am
      procurando água só encontro fogo
      Am/G              D/F#
        e queimo nesse fogo
      
      Segunda Parte:
                   C               D5(9)
      Quando você fala, tão apaixonada
             D/F#   G          D/F#     Em
      "Meu amor eu sempre estarei contigo"
            D4      C                     D5(9)
      olho nos seus olhos me emociono e choro
              D/F#  G           D/F#  Em
      sei que é mentira mas me sinto vivo
             D4    C                     D4   D
      mesmo sendo falso o ar, sinto que respiro
      
      Refrão:
       C          D5(9) D/F#
      Mentes tão bem
                     G
      que parece verdade
      D6(11)/F#        Em7
        o que você me fala
             D5(9)
      vou acreditando
      
       C          D5(9) D/F#
      Mentes tão bem
                            Em7
      que até chego a imaginar
                D4
      que não quer me enganar
      A9/C#               C
        que me ama de verdade
      D4
        mentes tão bem
      
      (Segunda Parte)
      
      Refrão Final:
       C          D5(9) D/F#
      Mentes tão bem
                     G
      que parece verdade
      D6(11)/F#        Em7
        o que você me fala
             D5(9)
      vou acreditando
      
       C          D5(9) D/F#
      Mentes tão bem
                            Em7
      que até chego a imaginar
                D4
      que não quer me enganar
      A9/C#               C
        que me ama de verdade
      D4
        mentes tão bem
      
      Em A5(9)
                        C   D    C       D
      Não me ama de verdade
      
      Você mente tão bem
      
      ( G  D11/F#  D/F#  D9/F#  D/F# )
      
      ( G  D/F#  Em  C  G )
      Intro:
      
          G
      E|-------3--------3--------3--------3------
      B|-------3--------3--------3--------3------
      G|-----0--------0--------0--------0--------
      D|---0--------0--------0--------0----------
      A|-----------------------------------------
      E|-3--------3--------3--------3------------
      
      
         D11/F#  D/F#      D9/F#     D/F#
      E|-------3-------2---------0---------------
      B|-------3-------3---------3---------3-----
      G|-----2-------2---------2---------2-------
      D|---0-------0---------0---------0---------
      A|-----------------------------------------
      E|-2-------2---------2---------2-----------
      
      
         G                 D/F#
      E|-----------------------------------------
      B|-------0--------0--------3--------3------
      G|-----0--------0--------2--------2--------
      D|---0--------0--------0--------0----------
      A|-----------------------------------------
      E|-3--------3--------2--------2------------
      
      
         Em              D/F#
      E|-----------------------------------------
      B|-------0-------0-------3-----------------
      G|-----0-------0-------2-------------------
      D|---2-------2-------0-------0-------------
      A|-----------------------------0-2---------
      E|-0-------0-------2-------2---------------
      
      
      Primeira Parte:
      
          C               D9/F#    D/F#
      E|------------------------0----------------
      B|-------1-------1----------------3--------
      G|-----0-------0-------2--------2----------
      D|---2-----0h2-------0--------0------------
      A|-3---------------------------------------
      E|-----------------2--------2--------------
      
      
         G                 D/F#
      E|-----------------------------------------
      B|-------0--------0--------3--------3------
      G|-----0--------0--------2--------2--------
      D|---0--------0--------0--------0----------
      A|-----------------------------------------
      E|-3--------3--------2--------2------------
      
      
          C/E     C        D5(9)   D/F#
      E|------------------------0----------------
      B|-------1-------1------3----------3-------
      G|-----0-------0------2----------2---------
      D|---2-------2------0----------0-----------
      A|---------3-------------------------------
      E|-0------------------------2--------------
      
      
          G                       D/F#
      E|-------3---------------------------------
      B|---------------0--------------3----------
      G|-----0-------0-------0-2-----------------
      D|---0-------0-------0-------0-------------
      A|-----------------------------------------
      E|-3-------3-------3-------2---------------
      
      
         Em              D4(6)
      E|-------3-------3-------3-------3---------
      B|-----0-------0-------0-------0-----------
      G|---0-------0-------2-------2-------------
      D|-2-------2-------0-------0---------------
      A|-----------------------------------------
      E|-----------------------------------------
      
      
         C                 G7M/B
      E|--------3-------3---------2--------------
      B|------1-------1---------3--------3-------
      G|----0-------0---------0--------0---------
      D|-----------------------------------------
      A|-3--------3--------2---------2-----------
      E|-----------------------------------------
      
      
         Am               Am/G
      E|-0---------------------------------------
      B|-------1-------1--------1---------1------
      G|-----2-------2--------2---------2--------
      D|---2-------2--------2---------2----------
      A|-0-------0-------------------------------
      E|------------------3---------3------------
      
      
         D/F#
      E|-------------------3p2-------------------
      B|-------3--------3--x---3-----------------
      G|-----2--------2----x-----2p0-------------
      D|---0--------0------x---------4-2p0-------
      A|-----------------------------------------
      E|-2--------2------------------------------
      
      
      (Repete tudo)
      
      
         D/F#
      E|---------------0----0h2------------------
      B|-------3---------3--3--------------------
      G|-----2--------------2--------------------
      D|---0--------0-------0--------------------
      A|-----------------------------------------
      E|-2--------2------------------------------
      
      
      Solo:
      
      Início:
      
      E|--------7---8p7--5-----------------------
      B|-----8------8----7--3--------------------
      G|--7--------------------------------------
      D|--9--9--9-----------4--------------------
      A|-----------------------------------------
      E|-----------------------------------------
      
      
      Final:
      
      E|--------7---8p7---------8-7h8p7----------
      B|-----8------8--------8-------------------
      G|--7--------------7h9---------------------
      D|--9--9--9--------------------------------
      A|-----------------------------------------
      E|-----------------------------------------
      
      
      Segunda Parte:
      
         C                  D9      D/F#
      E|--------0----------------0---------------
      B|----------------1------3---------3-------
      G|-----0--------0------2---------2---------
      D|---2--------2------0---------0-----------
      A|-3--------3------------------------------
      E|---------------------------2-------------
      
      
         G        D/F#     Em        D4***
      E|-------------------------3---------3-----
      B|-------0--------3------0---------3-------
      G|-----0--------2------0---------0---------
      D|---0--------0----------------0-----------
      A|-----------------------------------------
      E|-3--------2--------0---------------------
      
      
      (repete)
      
      
         C
      E|-------3-------0-------------------------
      B|-----------------------1-------1---------
      G|-----0-------0-------0-------0-----------
      D|---2-------2-------2-------2-------------
      A|-3-------3-------3-------3---------------
      E|-----------------------------------------
      
      
         D4      D
      E|-------3-----2---------------------------
      B|-----3-----------------------------------
      G|---2-------2----2p0----------------------
      D|-0-------0----------4-2p0----------------
      A|--------------------------0-2------------
      E|-----------------------------------------
      
      
      Refrão:
      
         C
      E|-----------------------------------------
      B|-------1--------1--------1--------1------
      G|-----0--------0--------0--------0--------
      D|---2--------2--------2--------2----------
      A|-3--------3--------3--------3------------
      E|-----------------------------------------
      
      
         D5(9)            D/F#
      E|-------0---------------------------------
      B|-----3-----3------------3-------3--------
      G|---2-----------2------2-------2----------
      D|-0-------0---0------0-------0------------
      A|-----------------------------------------
      E|------------------2-------2--------------
      
      
         G                 D6(11)/F#
      E|-------3--------3--------3--------3------
      B|-----3--------3--------0--------0--------
      G|---0--------0--------2--------2----------
      D|-----------------------------------------
      A|-----------------------------------------
      E|-3--------3--------2--------2------------
      
      
         Em7                D5(9)
      E|--------3--------3--------0--------0-----
      B|------3--------3--------3--------3-------
      G|----0--------0--------2--------2---------
      D|--------------------0--------0-----------
      A|-----------------------------------------
      E|-0---------0-----------------------------
      
      
         Em7               D4
      E|-------3--------3--------3--------3------
      B|-----3--------3--------3--------3--------
      G|---0--------0--------0--------0----------
      D|-2--------2--------0--------0------------
      A|-----------------------------------------
      E|-----------------------------------------
      
      
         A9/C#
      E|-------0---------------------------------
      B|-0--------------0--------0--------0------
      G|---2----------2--------2--------2--------
      D|-----2------2--------2--------2----------
      A|-4--------4--------4--------4------------
      E|-----------------------------------------
      
      
         C
      E|-----------------------------------------
      B|-------1--------1--------1---------------
      G|-----0--------0--------0-----------------
      D|---2--------2--------2--------0-2--------
      A|-3--------3--------3--------3-----3------
      E|-----------------------------------------
      
      
      E|-------3p2-------------------------------
      B|-----3-----3-----------------------------
      G|---2---------2p0-------------------------
      D|-0---------------4-----------------------
      A|-----------------------------------------
      E|-----------------------------------------
      
      
      E|-----------------------------------------
      B|---------------------------0-------------
      G|-----------2---0-------0-----------------
      D|-----2-4-------------4-------------------
      A|---2---------------2---------------------
      E|-0-------0---0---0-------0---------------
      
      
      E|-3---3--2-----0--------------------------
      B|---0-------3--5--------------------------
      G|-4---4--2--0--0--------------------------
      D|-----------4--5--------------------------
      A|-----------------------------------------
      E|--------------0--------------------------
      
      
         Em
      E|---------------0-------------------------
      B|-------0---------------0-------0---------
      G|-----0-------0-------0-------0-----------
      D|---2-------2-------2-------2-------------
      A|-----------------------------------------
      E|-0-------0-------0-------0---------------
      
      
         A5(9)
      E|----------------0------------------------
      B|-------0----------------0----------------
      G|-----2--------2-------2------------------
      D|---2--------2-------2-------2------------
      A|-0-------0--------0-------0---0-2--------
      E|-----------------------------------------
      
      
         C
      E|----------------0------------------------
      B|-------1----------------1----------------
      G|-----0-------0--------0------------------
      D|---2-------2--------2-------0-2----------
      A|-3-------3--------3-------3-----3--------
      E|-----------------------------------------
      
      
         D
      E|-2-----3p2-------------------------------
      B|---3-------3-----------------------------
      G|-----2-------2p0-------------------------
      D|-----------------0-----------------------
      A|-0---------------------------------------
      E|-----------------------------------------
      
      
          G
      E|-------3--------3--------3--------3------
      B|-------3--------3--------3--------3------
      G|-----0--------0--------0--------0--------
      D|---0--------0--------0--------0----------
      A|-----------------------------------------
      E|-3--------3--------3--------3------------
      
      
         D11/F#  D/F#      D9/F#     D/F#
      E|-------3-------2---------0---------------
      B|-------3-------3---------3---------3-----
      G|-----2-------2---------2---------2-------
      D|---0-------0---------0---------0---------
      A|-----------------------------------------
      E|-2-------2---------2---------2-----------
      
      
         G                 D/F#
      E|-----------------------------------------
      B|-------0--------0--------3--------3------
      G|-----0--------0--------2--------2--------
      D|---0--------0--------0--------0----------
      A|-----------------------------------------
      E|-3--------3--------2--------2------------
      
      
         Em         C
      E|-----------------------------------------
      B|-------0--------------3h5-3h5p3----------
      G|-----0------------0----------------------
      D|---2----------0h2---2--------------------
      A|------------3----------------------------
      E|-0---------------------------------------
      
      
        Composição: sidney silvaColaboração e revisão:
        • gustavofofao
        • tiagovip5
        • jhonmais
        • Di29
        • +4

        Comentários 82

        140 .
        • Rodrigo Rodrigo: Em 29/06/2015 17:03

          dedilhado fácil e legal

        • Guachi Guachi: Em 16/03/2014 20:35

          uma dica é usar o dedão pra pra formar o acorde do baixo!

        • Uelisson Uelisson: Em 11/02/2014 16:01

          Tenta no dedilhado, quem não consegue ir no mesmo ritmo, Também fica muito legal!!

        • dionepk dionepk: Em 25/01/2014 21:47

          Acorda fofao

        • italo.walace.1 italo.walace.1: Em 15/11/2013 20:26

          perfeitoooooooo vei nunk tive tanto gosto pra tocar uma musica mt facil

          • thalysson rodrigues melo thalysson rodrigues melo: Em 28/12/2013 04:11

            cara pode me ajudar n consigo assistir vídeo aula comprei violão quero tocar essa musica :P

        • Fabio Fabio: Em 12/07/2013 22:22

          quanto acorde .-.

        • koalisson koalisson: Em 23/02/2013 18:09

          kralho muito linda , video aula muito precisa , peguei rapidao vlw galeraa !!

        • fellipescampos fellipescampos: Em 22/10/2012 10:00

          Muito Obrigado"Fofao".O aprendizado requer Amor,Tempo, e p/ quem não Sabe,Paciência.Alguns Criticam ,porque ainda não descobriu isto

        • l_e_o_n_a_r_d_o l_e_o_n_a_r_d_o: Em 29/09/2012 11:46

          a video aula ficou exelente muito boa msm parabêns cifraclub, o fofão é um professor e tanto em parabêns ficou muito legal

        140 cancelar

        conseguiu tocar?

        • •••
        0:00 / 0:00
        2 versões de violão dificuldade exibições contribuição e correção
        2 versões de guitarra dificuldade exibições contribuição e correção
        2 versões de cavaco dificuldade exibições contribuição e correção
        2 versões de teclado dificuldade exibições contribuição e correção
        1 versão de Guitar Proformatodownloadscontribuição
        play/pausefechar subir/descer velocidade
        6ª corda E5ª corda A4ª corda D3ª corda G2ª corda B1ª corda E
          acordes
          transcrição verificada gustavofofao instrutor de violão
          publicidade
          fechar
          ok