Cifra Club

No Dia Em Que Eu Saí De Casa

Zezé Di Camargo e Luciano

Cifra: Principal (violão e guitarra)
exibições 2.088.852
Tom: A
Intro: Bm  E  A  E  A  (passagem 1)

Passagem 1:

E|------------------------------------------------------|
B|------------------------------------------------------|
G|------------------------------------------------------|
D|------------------------------------------------------|
A|-0----------------------------------------------------|
E|---0-2-4----------------------------------------------|

Primeira Parte:

    A
No dia em que eu saí de casa

Minha mãe me disse
            D
Filho, vem cá
    E
Passou a mão em meus cabelos

Olhou em meus olhos
           A
Começou falar


Por onde você for eu sigo
              A7
Com meu pensamento
                 D
Sempre onde estiver

Em minhas orações
    A
Eu vou pedir a Deus
    E                  A   (passagem 2)
Que ilumine os passos seus

Passagem 2

E|------------------------------------------------------|
B|------------------------------------------------------|
G|------------------------------------------------------|
D|------------------------------------------------------|
A|-0-0-2-4----------------------------------------------|
E|------------------------------------------------------|

Refrão:

           D
Eu sei que ela nunca compreendeu
                            A
Os meus motivos de sair de lá
                              E
Mas ela sabe que depois que cresce
              D
O filho vira passarinho 
         A   (passagem 2)
E quer voar

           D
Eu bem queria continuar ali
                              A
Mas o destino quis me contrariar
                           E
E o olhar de minha mãe na porta
              D
Eu deixei chorando
           A
A me abençoar

Intro: Bm  E  A  E  A (passagem 1)

Segunda Parte:

   A
A minha mãe naquele dia
                           D
Me falou do mundo como ele é
   E
Parece que ela conhecia
                              A
Cada pedra que eu iria por o pé


E sempre ao lado do meu pai
              A7               D
Da pequena cidade ela jamais saiu

Ela me disse assim:
     A
Meu filho, vá com Deus
    E                     A (passagem 2)
Que esse mundo inteiro é seu

Refrão:

           D
Eu sei que ela nunca compreendeu
                            A
Os meus motivos de sair de lá
                              E
Mas ela sabe que depois que cresce
              D
O filho vira passarinho 
         A  (passagem 2)
E quer voar

           D
Eu bem queria continuar ali
                              A
Mas o destino quis me contrariar
                           E
E o olhar de minha mãe na porta
                              A
Eu deixei chorando a me abençoar

                           E
E o olhar de minha mãe na porta
                              A
Eu deixei chorando a me abençoar
                           E
E o olhar de minha mãe na porta

Eu deixei chorando 
           A  D/A  E  A
A me abençoar

Solo Intro:

Violão I:

Parte 1

E|------------------------------------------------------|
B|-12b14-12b14r12-10-12-----10b12-10b12r10-9-10---------|
G|----------------------11------------------------------|
D|------------------------------------------------------|
A|------------------------------------------------------|
E|------------------------------------------------------|

Parte 2

E|-------------------7-----5----------------------------|
B|-9b10-9b10r9-7-7/9---9\7---7\5--2b3r2-0---------------|
G|----------------------------------------2-------------|
D|------------------------------------------------------|
A|------------------------------------------------------|
E|------------------------------------------------------|

Violão II:

Parte 1

E|------------------------------------------------------|
B|-15b17-15b17r15-14-15-----14b15-14b15r14-12-14--------|
G|----------------------14------------------------------|
D|------------------------------------------------------|
A|------------------------------------------------------|
E|------------------------------------------------------|

Parte 2

E|--------------------------10-------9------------------|
B|-12b14-12b14r12-10--10/12----12\10---10\9--5b7r5-3-2--|
G|------------------------------------------------------|
D|------------------------------------------------------|
A|------------------------------------------------------|
E|------------------------------------------------------|
Acordes para:

    0 comentários

    mostrar mais comentários

    Conseguiu tocar?

    138tocaram11ainda não

    Grave um vídeo tocando No Dia Em Que Eu Saí De Casa e mande pra gente!

    00:00 / 00:00
    outros vídeos desta música
    repetirqualidadeAutomático
    Outro vídeos desta música
      00:00 / 00:00
      Capítulos
      • Tocando a música
      • Dicas Iniciais / Equipamentos
      • Acordes da Introdução
      • Tocando Introdução
      • Ritmo da música
      • Passagem 1
      • Tocando Introdução Completa
      • Acordes Primeira Parte
      • Tocando Primeira Parte
      • Ritmo da música 2
      • Passagem 2
      • Tocando Segunda Estrofe
      • Dicas Refrão
      • Tocando Refrão
      • Dicas 2
      • Acordes do Final
      • Tocando Segunda Parte - Final
      • Ritmo do Final
      • Tocando Solo da Introdução
      • Solo Introdução: Violão 1 - Parte 1 de 2
      • Solo Introdução: Violão 1 - Parte 2 de 2
      • Tocando Solo da Introdução - Violão 2
      • Solo Introdução: Violão 2 - Parte 1 de 2
      • Solo Introdução: Violão 1 - Parte 2 de 2
      • Encerramento
      • Ficha Técnica
      OK