Cifra Club

Sem Medo de Ser Feliz

Zezé Di Camargo e Luciano

Cifra: Principal
exibições 353.896
Tom: F
Intro: E A D7 A E D7 E A D7 A E D7


E|----17~---1515-1313-1212-1010--13p12p10~------------------|
B|----------------------------------------------------------|
G|----------------------------------------------------------|
D|----------------------------------------------------------|
A|----------------------------------------------------------|
E|----------------------------------------------------------|


E|----17~---1515-1313-1212--10--8---------------------------|
B|----------------------------------------------------------|
G|----------------------------------------------------------|
D|----------------------------------------------------------|
A|----------------------------------------------------------|
E|----------------------------------------------------------|


E|----17~---1515-1313-1212-1010--13p12p10~------------------|
B|----------------------------------------------------------|
G|----------------------------------------------------------|
D|----------------------------------------------------------|
A|----------------------------------------------------------|
E|----------------------------------------------------------|


E|----17~---1515-1313-1212--10--8--15b17r15-13--------------|
B|----------------------------------------------------------|
G|----------------------------------------------------------|
D|----------------------------------------------------------|
A|----------------------------------------------------------|
E|----------------------------------------------------------|


 E                     B
Tira essa paixão da cabeça
 A                       E
Tira essa tristeza no olhar
                         B
Já não faz sentido essa busca
 A                     E
Já não vale a pena chora
          B             A                E
Tempo perdido, amor bandido que ele te fez
          B              A              E
Final da história, você sem rumo mais uma vez

                                        B
E como o rio busca o mar, você vem me procurar
     A                                                  E  B
E encontra em meu peito esse amor, que ele não quis te dar
   E                                   G#7
Então viaja no meu corpo, sem medo de ser feliz
         A                   B        E
E eu te dou meu amor, faço amor como nunca fiz

          B
Perco a cabeça, me queimo em seu fogo
         E
Eu sem juízo, faço o seu jogo
              B                                E
Sou seu brinquedo, o seu presente que caiu do céu
         B
Faço de tudo, pra te agradar
                E
Dorme em meus braços te faço sonhar
 E           A    B
Mas nem a...manheceu
         G#m      C#m
Você já me esqueceu
 A                 B
Mais uma vez você vai
 G#7               C#m
Leva um pedaço de mim
 F#m                B                  E
Mais uma vez vou ficar te esperando aqui

(B E A B A E B E A B A E B)


E|----17~---1515-1313-1212-1010--13p12p10~------------------|
B|----------------------------------------------------------|
G|----------------------------------------------------------|
D|----------------------------------------------------------|
A|----------------------------------------------------------|
E|----------------------------------------------------------|


E|----17~---1515-1313-1212--10--8---------------------------|
B|----------------------------------------------------------|
G|----------------------------------------------------------|
D|----------------------------------------------------------|
A|----------------------------------------------------------|
E|----------------------------------------------------------|


         B
Perco a cabeça, me queimo em seu fogo
         E
Eu sem juízo, faço o seu jogo
              B                                E
Sou seu brinquedo, o seu presente que caiu do céu
         B
Faço de tudo, pra te agradar
                E
Dorme em meus braços te faço sonhar
 E           A    B
Mas nem a...manheceu
         G#m      C#m
Você já me esqueceu
 A                 B
Mais uma vez você vai
 G#7               C#m
Leva um pedaço de mim
 F#m                B                  E
Mais uma vez vou ficar te esperando aqui

(B E A B A E B E A B A E B)


E|----17~---1515-1313-1212-1010--13p12p10~------------------|
B|----------------------------------------------------------|
G|----------------------------------------------------------|
D|----------------------------------------------------------|
A|----------------------------------------------------------|
E|----------------------------------------------------------|


E|----17~---1515-1313-1212--10--8---------------------------|
B|----------------------------------------------------------|
G|----------------------------------------------------------|
D|----------------------------------------------------------|
A|----------------------------------------------------------|
E|----------------------------------------------------------|


E|----17~---1515-1313-1212-1010--13p12p10~------------------|
B|----------------------------------------------------------|
G|----------------------------------------------------------|
D|----------------------------------------------------------|
A|----------------------------------------------------------|
E|----------------------------------------------------------|


E|----17~---1515-1313-1212--101210-8108-686-464-131313\-----|
B|----------------------------------------------------------|
G|----------------------------------------------------------|
D|----------------------------------------------------------|
A|----------------------------------------------------------|
E|----------------------------------------------------------|
Acordes para:

    0 comentários

      mostrar mais comentários

      Conseguiu tocar?

      16tocaram0ainda não

      Grave um vídeo tocando Sem Medo de Ser Feliz e mande pra gente!

      00:00 / 00:00
      outros vídeos desta música
      repetirqualidadeautomática
      Outro vídeos desta música
        00:00 / 00:00
        automática
        OK