Notificações Amigos pendentes

      Zezé Di Camargo e Luciano

      Pra Mudar Minha Vida

      235.100 exibições
      Tom: E
      (intro 2x)
      
                    F#m        A             E
      E|---------------------------------------------------9-7-5-4--------4----2--0-0
      B|---------------------------------------------------------5----------------0-0
      G|---------4------------------------------------7/9--9-7-6-4------2/4--2-2--1-1
      D|---2-4/6---6/4-2-4------4-6-7-----------------------------------------------2
      A|----------------------------------------------------------------------------2
      E|----------------------------------------------------------------------------0
      
      
                                            E
      Queria tanto te dizer que eu ja não te amo
      E|-----4
      B|------
      G|-2/4--
      
       E                                      B
      Que seu amor em minha vida foi mais um engano
      
      E|----11
      B|------
      G|-9/11-
      
              F#m
      Até quando eu tenho que fingir
      
      E|-2/4/2
      B|------
      G|-2/4/2
                      A               B       E
      Se a minha boca morre de vontade do seu beijo
      
      
      E|------------------
      B|------------------
      G|--------4---------
      D|--2-4/6---6\4-2---
      A|----------------0-
      
                                        E
      Queria esquecer voce apenas um momento
      E|-----4
      B|------
      G|-2/4--
      
        E                               B
      Mas nunca consegui tirar voce do pensamento
      E|----11
      B|------
      G|-9/11-
                  F#m
      Quando eu digo que nao devo te amar
      E|-2/4/2
      B|------
      G|-2/4/2
              A               B                E
      O meu coraçao me diz te quero e nao tem jeito
      
      
      E|-------2-4--5
      B|-------------
      G|--0h1----4--6
      
           A
      Eu sempre fiz de tudo pra me apaixonar
                                              E
      Até um dia alguem deixar saudade no meu peito
      E|-----4
      B|------
      G|-2/4--
                      B      A             E
      Agora eu tenho medo, agora eu tenho medo
      
      E|---------------------
      B|---------------------
      G|--------4------------
      D|--2-4/6---6\4-2------
      A|----------------4-2--
      E|--------------------0
      
                                         A     B
              Voce chegou me deixou sem saida
      
      E|-9-9-9-7-5-7
      B|------------
      G|-9-9-9-7-6-8
      
                                              E
      Me fez te querer quando eu nao mais queria
      
      
                          E
      E|---4----2--0-0
      B|-----------0-0
      G|-2/4--2-2--1-1
      D|-------------2
      A|-------------2
      E|-------------0
      
      
        E                             B
      Voce me fez amar quando eu dizia nao
                                      A
      E acreditar que no seu coração
                      B                       E
      tinha um grande amor que eu sonhei um dia
      
      E|---------------------
      B|---------------------
      G|--------4------------
      D|--2-4/6---6\4-2------
      A|----------------4-2--
      E|--------------------0
      
                                      A
      Voce chegou quando a dor mais doia
      
      E|-9-9-9-7-5-7
      B|------------
      G|-9-9-9-7-6-8
      
      
                                      E
      E me encontrou quando eu me perdia
      
                          E
      E|---4----2--0-0
      B|-----------0-0
      G|-2/4--2-2--1-1
      D|-------------2
      A|-------------2
      E|-------------0
      
      
        E                             B
      Acho que foi Deus que te mandou pra mim
                                      A
      Pra recomeçar e me fazer feliz
              B    E
      Por toda vida
      
      
          (solo 2x)           F#m                      A
      E|------------------------------------------------------------9-7-5-4-------2--4-5
      B|------------------------------------------------------------------5-------------
      G|---------4---------------------------------------------7/9--9-7-6-4---0h1----4-6
      D|---2-4/6---6/4-2-------------4-6-7----------------------------------------------
      A|--------------------------------------------------------------------------------
      E|--------------------------------------------------------------------------------
      
      
                            A
      Eu sempre fiz de tudo pra me apaixonar
                                              E
      Até um dia alguem deixar saudade no meu peito
      E|-----4
      B|------
      G|-2/4--
                      B      A             E
      Agora eu tenho medo, agora eu tenho medo
      
      E|---------------------
      B|---------------------
      G|--------4------------
      D|--2-4/6---6\4-2------
      A|----------------4-2--
      E|--------------------0
      
      
                              A
      Voce chegou me deixou sem saida
      
      E|-9-9-9-7-5-7
      B|------------
      G|-9-9-9-7-6-8
      
                                              E
      Me fez te querer quando eu nao mais queria
      
      
                          E
      E|---4----2--0-0
      B|-----------0-0
      G|-2/4--2-2--1-1
      D|-------------2
      A|-------------2
      E|-------------0
      
      
        E                             B
      Voce me fez amar quando eu dizia nao
                                      A
      E acreditar que no seu coração
                      B                       E
      tinha um grande amor que eu sonhei um dia
      
      E|---------------------
      B|---------------------
      G|--------4------------
      D|--2-4/6---6\4-2------
      A|----------------4-2--
      E|--------------------0
      
                                      A     B
      Voce chegou quando a dor mais doia
      
      E|-9-9-9-7-5-7
      B|------------
      G|-9-9-9-7-6-8
      
      
                                      E
      E me encontrou quando eu me perdia
      
                          E
      E|---4----2--0-0
      B|-----------0-0
      G|-2/4--2-2--1-1
      D|-------------2
      A|-------------2
      E|-------------0
      
      
        E                             B
      Acho que foi Deus que te mandou pra mim
                                      A
      Pra recomeçar e me fazer feliz
              B    E
      Por toda vida
      
      Solo final:
      
      E|---4----5-5/7-5---0
      B|------------------0
      G|-2/4----6---------1
      D|------------------2
      A|------------------2
      E|------------------0
      
        Composição: César AugustoColaboração e revisão:
        • mss99gamer
        • kikaum
        • kiko
        • Carlão
        • +4

        Comentários 5

        140 .
        • mss99gamer mss99gamer: Em 21/09/2014 20:59

          no finalzinho da musica tem um solinho!
          Fiz de ouvido :
          E|---4----5--5/7-5
          B|----------------
          G|-2/4----6-------
          TERMINA EM "Em (mi menor)"

        • sorriso97 sorriso97: Em 19/01/2013 18:58

          tranquilaça de tocar e o solo fico perfeito valeu cifra club

        • ederjunior. ederjunior.: Em 14/01/2013 12:12

          muito facil...

        • erieltton erieltton: Em 24/12/2012 11:56

          merecia video aula

        • erieltton erieltton: Em 24/12/2012 11:56

          muito boa essa musica,

        140 cancelar

        conseguiu tocar?

        • •••
        0:00 / 0:00

        Capítulos

          1 versão de Guitar Proformatodownloadscontribuição
          play/pausefechar subir/descer velocidade
          6ª corda E5ª corda A4ª corda D3ª corda G2ª corda B1ª corda E
            acordes
            publicidade
            fechar
            ok