Cifra Club

No Pressure Over Cappuccino

Alanis Morissette

Cifra: Versão 2 (violão e guitarra)
tom: A
Intro:

e|---0---0-----0-|---0---0-----0-|
B|---0---0-----0-|---0---0-----0-|
G|-9---9---9-9---|-8---8---8-8---|  2X
D|-9---9---9-9---|-9---9---9-9---|
A|---------------|---------------|
E|---------------|---------------|

(Verso 1)
Riff 1:
e|---0---0-----0-|---0---0-----0-|---0---0-----0-|---0---0-----0-|
B|---0---0-----0-|---0---0-----0-|---0---0-----0-|---0---0-----0-|
G|-9---9---9-9---|-8---8---8-8---|-6---6---6-6---|-8---8---8-8---|         4x
D|-9---9---9-9---|-9---9---9-9---|-7---7---7-7---|-9---9---9-9---|
A|---------------|---------------|---------------|---------------|
E|---------------|---------------|---------------|---------------|

And you're like a 90's Jesus...

*Nota: O 1º verso deve ser tocado igualzinho ao riff.
O segundo verso já eh tocado em todas as cordas, pois entra a bateria o piano e o segundo violão.


(Verso 2) (Batida  v^^v^^v)
Riff 2:
       E5            E5*             A             E5*
e|-0--0--0--0---|-0--0--0--0---|-0--0--0--0---|-0--0--0--0---|
B|-0--0--0--0---|-0--0--0--0---|-0--0--0--0---|-0--0--0--0---|
G|-9--9--9--9---|-8--8--8--8---|-6--6--6--6---|-8--8--8--8---|     4x
D|-9--9--9--9---|-9--9--9--9---|-7--7--7--7---|-9--9--9--9---|
A|-7--7--7--7---|-7--7--7--7---|-7--7--7--7---|-7--7--7--7---|
E|-0--0--0--0---|-0--0--0--0---|-0--0--0--0---|-0--0--0--0---|

And you're like a 90's Kennedy...

(Refrão:)
(P.S: Eu nao tenho certeza quanto ao nome dessa segunda nota, então vou chama-la de A*)
  A9 A*
e|-0--0--|
B|-0--0--|
G|-6--8--|
D|-7--6--|
A-7--7--|
e|-x--x--|
        A9                                    A*
You may never be nor have a husband. You will never have or hold a child.
         A9                               A*
You will learn to lose everything. We are temporary arrangements.
A9                 A*                E5*       A*
Hi yai yah da die, hi yai yah da die...

(Verso 3 = Repete Riff2)

(Final)
G|-9--9--9--9---|-8--8--8--8---|-6--6--6--6---|-8--8--8--8---|     
D|-9--9--9--9---|-9--9--9--9---|-7--7--7--7---|-9--9--9--9---|
A|-7--7--7--7---|-7--7--7--7---|-7--7--7--7---|-7--7--7--7---|

Ahh.. yai.. da da da diee..
00:00 / 00:00
Outros vídeos desta música
Repetir
Outros vídeos desta música
Composição de Alanis Morissette / Nick Lashley
Colaboração e revisão:
  • kaja_wk
2.671 exibições
    • ½ Tom
    • A
    • Bb
    • B
    • C
    • Db
    • D
    • Eb
    • E
    • F
    • F#
    • G
    • Ab
  • Adicionar à lista

    0 comentários

    Ver todos os comentários

    Conseguiu tocar?

    0 Tocaram 0 Ainda não

    Grave um vídeo tocando No Pressure Over Cappuccino e nos envie!

    Entre para oCifra Club PRO

    Tenha acesso a benefícios exclusivos no App e no Site

    • Chega de anúncios

    • Prioridade de compra em lançamentos

    • Mais recursos no app do Afinador

    • Atendimento Prioritário

    • Descontos nos produtos Cifra Club

    • Ajude a produzir mais conteúdo

    00:00 / 00:00
    Capítulos
    • Início
    • Tocando a Música
    • Acordes da música
    • Ensinando Ritmo da música
    • Encerramento

    Cifra Club Pro

    Aproveite o Cifra Club com benefícios exclusivos e sem anúncios
    Cifra Club Pro
    Aproveite o Cifra Club com benefícios exclusivos e sem anúncios
    OK