Cifra Club

Poison

Alice Cooper

Tab de baixo: Principal
[Intro]

G|------------|
D|------------|
A|-5-5----5-5-|
E|------------|

[Solo]

G|------------------|
D|------------------|
A|---5--8--5---5--8-|
E|-6---------6------|

G|-----------------------|
D|-----------------------|
A|-1--1-----------1--1-5-|
E|------1-0--3--3--------|

G|----------------------------------------|
D|------1------------1--------------------|
A|-1-------1---3-------1------3---5---3---|
E|----1-----------4------5--1---3---6---3-|

[Refrão]

G|----------------|
D|----2-3---3-2---|  (4x)
A|-5------1-------|
E|----------------|

G|-------------|
D|-------------|
A|-1~----------|
E|-------------|

G|-------------------------|
D|-------------------------|
A|-5-1---3-5---1-5-5-5-5-5-|
E|-----1-----1-------------|

G|----------------------------------------|
D|------1------------1--------------------|
A|-1-------1---3-------1------3---5---3---|
E|----1-----------4------5--1---3---6---3-|

G|----------------|
D|----2-3---3-2---|  (4x)
A|-5------1-------|
E|----------------|

G|-------------|
D|-------------|
A|-1~----------|
E|-------------|

[Solo]

G|-------------------------|
D|-------------------------|
A|-5-1---3-5---1-5-5-5-5-5-|
E|-----1-----1-------------|

[Ponte]

G|-----------------|
D|-----------------|
A|-5-----5-5-5-5-5-|
E|---6-1-----------|

G|----------------------------------------|
D|------1------------1--------------------|
A|-1-------1---3-------1------3---5---3---|
E|----1-----------4------5--1---3---6---3-|

[Refrão]

G|----------------|
D|----2-3---3-2---|  (4x)
A|-5------1-------|
E|----------------|

G|-------------|
D|-------------|
A|-5-5-5-5-5-5-|
E|-------------|

G|-------------------|
D|----2-3---3-2  X12-|
A|-5------1----------|
E|-------------------|
00:00 / 00:00
Outros vídeos desta música
Repetir
Outros vídeos desta música
Composição de Alice Cooper / John McCurry / Sérgio Bittencourt
Colaboração e revisão:
  • Kaiio Souza
5.610 exibições

0 comentários

Ver todos os comentários

Conseguiu tocar?

1 Tocaram 0 Ainda não

Grave um vídeo tocando Poison e nos envie!

Entre para oCifra Club PRO

Tenha acesso a benefícios exclusivos no App e no Site

  • Chega de anúncios

  • Prioridade de compra em lançamentos

  • Mais recursos no app do Afinador

  • Atendimento Prioritário

  • Descontos nos produtos Cifra Club

  • Ajude a produzir mais conteúdo

00:00 / 00:00

Cifra Club Pro

Aproveite o Cifra Club com benefícios exclusivos e sem anúncios
Cifra Club Pro
Aproveite o Cifra Club com benefícios exclusivos e sem anúncios
OK