Cifra Club

Keep Em Coming

Alkaline Trio

Tab de baixo: Principal
Intro/verse:

G ------------------------------|
D ------------------------------|
A ---------------------55555555-|
E 555575555557555555755---------|

Between verse

G ----------------------------------------------------|
D ----------------------------------------------------|
A --7---7---7---7-------12-------12-------12-------12-|
E 00-000—000-000-0-1010---101010---101010----101010---|


In second verse(play fast):

 G 44446666444422224444
 D --------------------|
 A --------------------|
 E --------------------|

Chorus:

G -----------------------------------------------|
D -----------------------------------------------|
A ---7---7---7---7----12-------12-------12-------|
E 55--555—555-555—1010--101010---101010---101010-|

G -------------------44-446677664422----------------|
D --------------------------------------------------|
A ---------10s12---------------------55-555-555-555-|
E 10101212------------------------------------------|

(“ baaack”)(play fast)
G ----------------------|
D –-7--7--7-7----7------|
A -0-00-00—0-00—00------|
E ----------------------|     etc.

Then

G --------------------|
D --------------------|
A 55557777999912121212
E --------------------
exibições 333

0 comentários

mostrar mais comentários

Conseguiu tocar?

0 tocaram 0 ainda não

Grave um vídeo tocando Keep Em Coming e mande pra gente!

00:00 / 00:00
outros vídeos desta música
repetir qualidade Automático
Outros vídeos desta música
00:00 / 00:00
Automático
OK