Cifra Club

Aprenda

Menininha Meu Amor

Amado Batista

Cifra: Principal (violão e guitarra)
Tom: G
[Intro]  D  C  G  D7  G

E|----------------------------------------------------|
B|---2-2-2-2-2-2-0----0-------0--0------0-------------|
G|-----------------2----2--0-------2-------2----------|
D|-----------------------------------4----------0-----|
A|--------------------------------------------4-------|
E|----------------------------------------------------|

G                            Em
 Eu não consigo esquecer de você
G                             D
  Tem sido muito difícil pra mim

E|--------5-7-5-9-7-5-5-3-------------|
B|------------------------------------|
G|------------------------------------|
D|------------------------------------|
A|------------------------------------|
E|------------------------------------|

C          D7                   G    Em
  Diga porque? Me deixou tão sozinho
      C      D7   G  Em
 Menininha, meu amor
      C      D7   G
 Menininha, meu amor
                           Em
 Escrever cartas eu já escrevi
 G                             D
  Mandar recados também já mandei
 C          D7               G    Em
  Quero morrer se você tiver outro
      C      D7   G  Em
 Menininha, meu amor
      C      D7   G
 Menininha, meu amor
 D                        C
  A solidão vai acabar comigo
         G     Em     D
 Se quem amo, não voltar
 D                              C
  Se você quis só me dar um castigo
            G    D7      G
 Já chega amor, pode voltar
                              Em
 Eu não consigo esquecer de você
 G                            D
  Tem sido muito difícil pra mim
 C         D7                   G    Em
  Diga porque? Me deixou tão sozinho
      C      D7   G  Em
 Menininha, meu amor
      C      D7   G
 Menininha, meu amor
Composição de Amado Batista / Reginaldo Sodré
Colaboração e revisão:
94.242 exibições
  • Simplificar cifra
    • ½ Tom
    • A
    • Bb
    • B
    • C
    • Db
    • D
    • Eb
    • E
    • F
    • F#
    • G
    • Ab
  • Adicionar à lista

    0 comentários

    Mostrar mais comentários

    Conseguiu tocar?

    12 Tocaram 2 Ainda não

    Grave um vídeo tocando Menininha Meu Amor e mande pra gente!

    00:00 / 00:00
    outros vídeos desta música
    repetir qualidade Automático
    Outros vídeos desta música
    00:00 / 00:00
    Automático

    Cifra Club Pro

    Aproveite o Cifra Club com benefícios exclusivos e sem anúncios
    7 dias grátis
    Cifra Club Pro
    Aproveite o Cifra Club com benefícios exclusivos e sem anúncios
    7 dias grátis
    OK