Cifra Club

Eu Vou Vencer

André Valadão

Cifra: Principal
exibições 21.140
Tom: G
Intro:

Solo guitarra 2x: 

E|-----------------------------8-8-----------------------------------------|
B|-----8-8-8-10-10-10-10-10-10-----12-12-----------8-8-8-10-10-10-10-10-10-|
G|9-9-9-----------------------------------9-9-9----------------------------|   
D|-------------------------------------------------------------------------|
A|-------------------------------------------------------------------------|
E|-------------------------------------------------------------------------|

Riff 1:

E|-0-0-0-3-3-3-5-5-5-5-5--------0-0-0-3-3-3-5-5-5-5-5-5-0-0-0-3-3-3-5-5-5-5-5-------|
A|-----------------------3-3-2-2---------------------------------------------3-3-2-2|
D|----------------------------------------------------------------------------------|
G|----------------------------------------------------------------------------------|
B|----------------------------------------------------------------------------------|
E|----------------------------------------------------------------------------------|

*Esse riff é tocado junto com o refrão.

Riff 2:

E|---------------|
A|---------------|
D|---------------|
G|-9-9-7-9-7-9-7~|
B|---------------|
E|---------------|

*Esse riff é tocado junto com a parte "Com uma pedrada na cara eu vou derrubar, com a palavra de vida."

Base: Em  G  A  C  Em  G  A

Todos 2x: Em  G  A  C   Em  G  Am

                           G
Se a vida é uma luta eu vou vencer,
               D/F#               Em
com Cristo a frente nada vai me deter

                                              G
Se o "Gigante" é grande é mais fácil de derrubar
                 D/F#                   Em
Sou geração de Davi, guerreiro adorador

                      G  D/F#           Em
Com uma pedrada na cara eu vou derrubar
                    G  D/F#
Com a palavra de vida

       Em   G            A   C
Eu vou vencer, Eu vou vencer
           Em   G        A
Eu vou vencer, Eu vou vencer.

Solo: Em  G  A  C  Em  G  A

Em                              G
E do lado de fora pareço pequeno
             D/F#                      Em
Mas tem um gigante que mora aqui dentro
                           G
É Jesus Cristo que ressuscitou
                 D/F#                  Em
Da geração de Davi, guerreiro adorador

                     G  D/F#              Em
Com uma pedrada na cara   eu vou derrubar
                    G  D/F#
Com a palavra de vida

       Em   G            A   C
Eu vou vencer, Eu vou vencer
           Em   G        A
Eu vou vencer, Eu vou vencer.

Solo 2x: Em  G  A  C  Em  G  A

   Em     D      A  G
Quem vem contra mim
          Em   D      A  G
eu vou em nome do Senhor
      Em   D    A     G
Deus forte na batalha
Em      D    A   G
É o meu protetor

Solo guitarra: Em  G  A  C  Em  G  A
Todos: Em  G  A  C  Em  G  A

Em                               G
E do lado de fora pareço pequeno
             D/F#                    Em
Mas tem um gigante que mora aqui dentro
                           G
É Jesus Cristo que ressuscitou
                  D/F#
Da geração de Davi,    guerreiro adorador

                     G  D/F#              Em
Com uma pedrada na cara   eu vou derrubar
                    G  D/F#
Com a palavra de vida

      Em   G            A    C
Eu vou vencer, Eu vou vencer
           Em   G        A
Eu vou vencer, Eu vou vencer

Solo 2x:  Em  G  A  C  Em  G  A

                 Em   D   C#   C
Com uma pedrada na cara (4x)

Final: Em6
Acordes para:
    Colaboração e revisão:

    0 comentários

      mostrar mais comentários

      Conseguiu tocar?

      2tocaram0ainda não

      Grave um vídeo tocando Eu Vou Vencer e mande pra gente!

      00:00 / 00:00
      outros vídeos desta música
      repetirqualidadeautomática
      Outro vídeos desta música
        00:00 / 00:00
        automática
        OK