Cifra Club

Aprenda

If You Were There, Beware

Arctic Monkeys

Cifra: Versão 4 (violão e guitarra)
Já pensou em usar uma coleção de roupas do Cifra Club? Responda as perguntas abaixo e nos ajude nessa missão! →
tom: C
(intro)

(parte 1) Apenas Jamie
E|-----------------|
B|-----------------|
G|-----------------|
D|----5-----5------|
A|--7---6-7---6-7--|
E|-----------------|

(parte 2) Alex
E|-----------------|----------------------------|
B|-----------------|----------------------------|
G|-----------------|----------------------------|
D|-----------------|----------------------------|
A|---10------10----|-5-3-3-3-3-3--7-7-7--9-9-9--|
E|-0----11-0----11-|----------------------------|

Jamie
E|-----------------|----------------------------|
B|----8-------8----|-----5--8-7-------5---8--7--|
G|-9-----8-9-----8-|-5------------5-------------|
D|-----------------|----------------------------|
A|-----------------|----------------------------|
E|-----------------|----------------------------|

(verso) Apenas Jamie
    Em   C (palhete ligeiramente devagar, dando mais ênfase nas cordas mais agudas)
E|--0----0--
B|--0----1--
G|--0----0--
D|--2----2--
A|--2----3--
E|--0-------

(ponte)
Alex
E|---------------------
B|----8---------12-----
G|--9---9----11----11--
D|---------------------
A|---------------------
E|---------------------

Jamie
E|---------------------
B|---------------------
G|---------------------
D|----5----------9-----
A|--7---7-----9-----9--
E|---------------------

(pré-verso) Jamie e Alex
E|--7--------------------
B|--8--------8-----------
G|--9--------9--------8-- (apenas Jamie toca essa última nota)
D|-----------10----------
A|-----------------------
E|-----------------------

(verso) Jamie e Alex
    Em       C
E|--7------------
B|--8--------8---
G|--9--------9---
D|-----------10--
A|---------------
E|---------------

(quando canta "why leave her on her own", no momento em que o baixo pára de ser tocado, Alex pára de tocar mas Jamie continua tocando a mesma coisa)

(porém, na segunda vez que é cantado "why leave her on her own", no momento em que o baixo volta, Alex volta a tocar, junto com Jamie)

(interlúdio) Jamie e Alex
E|--------------------------------------------------|-------------------------------------------------|
B|--------------------------------------------------|-------------------------------------------------|
G|--------------------------------------------------|-------------------------------------------------|
D|--------------------------------------------------|-------------------------------------------------|
A|---------------3-3-3--2-2-2-------2-2-2-------2-2-|--------------3-3-3--2-2-2-------2-2-2-------2-2-|
E|--5-5-5--3-3-3--------------0-0-0-------0-0-0-----|-5-5-5--3-3-3--------------0-0-0-------0-0-0-----|

E|------------------------------------------------------|---------------------------------------------------|
B|------------------------------------------------------|---------------------------------------------------|
G|------------------------------------------------------|---------------------------------------------------|
D|------------------------------------------------------|------------------------------------------------2--|
A|---------------3-3-3--2-2-2--3-3-3-------2-2-2--5-5-5-|-3-3-3-------2-2-2-------3-3-3-------2-2-2-2-2--2--|
E|--5-5-5--3-3-3---------------------3-3-3--------------|-------3-3-3-------2-2-2-------3-3-3------------0--|

(break)
Alex
E|----------------------------------
B|----------------------------------
G|----------------------------------
D|----5----5-----------5----5-------
A|--6----7----6------6----7----6----
E|--------------0----------------0--

(quando começa a cantar "I don't know what it is that they want", Alex continua tocando a mesma coisa)

E|------------
B|------------
G|-7-7----5-4-
D|------------
A|------------
E|------------

(Alex)
E|---------------------------------|-----------------
B|---------------------------------|-----------------
G|---------------------------------|---------7-9-12--
D|----5----5-----------5----5------|---5-7-9---------
A|--6----7----6------6----7----6---|-6---------------
E|--------------0----------------0-|-----------------

(pausa)

(Alex)
E|------------------|-------------------
B|------------------|-------------------
G|------------------|-7-55555-99--------
D|------------------|------------2-444--
A|----10------10----|-------------------
E|--0----11-0----11-|-------------------

(intro - parte 2)

(final)
Alex
E|-----------
B|-----------
G|-----------
D|5----5432--
A|-----------
E|-----------

Jamie
E|-----------
B|8----8765--
G|-----------
D|-----------
A|-----------
E|-----------

If you were there beware the serpant soul pinchers
Three hundred and fifty no thank yous and nobody flinches
Go on girl go on, give us something gruesome
We require your grief, the thugs help the thieves
As they're trying to rob the words from her gob
And take the source of the innocents

If you were there beware the serpant soul pinchers
Can't you sense she was never meant to fill column inches
And you've had enough what you're trying to dig up isn't there to be dug
The thiefs help the thugs
As they're trying to beat the good grace of a sweetheart
Out to the point she'll comply

Why leave her on her own
If I'd have known then I wouldn't have said it
I wouldn't have said it if I would have known
Why leave her on her own
If I predicted tears then I wouldn't have said it
I wouldn't have said it if I would have known

There's a cirlce of witches, ambitiously vicious they are
Our attempts to remind them of reason wont get us that far
I don't know what it is that they want
I don't know what it is that they want
But I haven't got it to give
She hasn't got it to give
Composição de Alex Turner / Arctic Monkeys
Colaboração e revisão:
  • Pedro Shinzato
458 exibições
    • ½ Tom
    • A
    • Bb
    • B
    • C
    • Db
    • D
    • Eb
    • E
    • F
    • F#
    • G
    • Ab
  • Adicionar à lista

    0 comentários

    Ver todos os comentários

    Conseguiu tocar?

    0 Tocaram 0 Ainda não

    Grave um vídeo tocando If You Were There, Beware e nos envie!

    00:00 / 00:00
    Outros vídeos desta música
    Repetir Qualidade Automático
    Outros vídeos desta música
    00:00 / 00:00
    Automático

    Cifra Club Pro

    Aproveite o Cifra Club com benefícios exclusivos e sem anúncios
    Cifra Club Pro
    Aproveite o Cifra Club com benefícios exclusivos e sem anúncios
    OK