Cifra Club

Ursinho de Dormir

Armandinho

Tab de baixo: Principal
Começa só a guitarra...

Que não quis pagar pra ver...
G:---------------------------------------------------------------------|
D:---------------------------------------------------------------------|
A:-------7~------------------------------------------------------------|
E:5~-------------------------------------------------------------------|

Eu vou te levar...
2x
G:---------------------------------------------------------------------|
D:---------------------------------------------------------------------|
A:-------------7777777777----------------7777777777--------------------|
E:5555555555----------------5555555555---------------------------------|

Pra brindar o infinito...
1x
G:---------------------------------------------------------------------|
D:---------------------------------------------------------------------|
A:------------7777777777----------------77777777777--------------------|
E:2~-----7~----------------5555555555-----------------5555555555-------|

E hoje eu descobri...
2x
G:---------------------------------------------------------------------|
D:---------------------------------------------------------------------|
A:-------------7777777777----------------7777777777--------------------|
E:5555555555----------------5555555555---------------------------------|

Eu vou te levar...
2x
G:---------------------------------------------------------------------|
D:---------------------------------------------------------------------|
A:-------------7777777777----------------7777777777--------------------|
E:5555555555----------------5555555555---------------------------------|

Pra brindar o infinito...
1x
G:---------------------------------------------------------------------|
D:---------------------------------------------------------------------|
A:------------7777777777----------------77777777777--------------------|
E:2~-----7~----------------5555555555-----------------5555555555-------|

Solo da Guitarra:
2x
G:---------------------------------------------------------------------|
D:---------------------------------------------------------------------|
A:7777777777----------------7777777777---------------------------------|
E:-------------5555555555----------------5555555555--------------------|

Eu vou te levar...
2x
G:---------------------------------------------------------------------|
D:---------------------------------------------------------------------|
A:-------------7777777777----------------7777777777--------------------|
E:5555555555----------------5555555555---------------------------------|

Pra brindar o infinito...
1x
G:---------------------------------------------------------------------|
D:---------------------------------------------------------------------|
A:------------7~-------7~----------------------------------------------|
E:2~-----7~-------5~-------5~------------------------------------------|

I Love You, I Love You...
G:---------------------------------------------------------------------|
D:---------------------------------------------------------------------|
A:7~------7~------7~---------------------------------------------------|
E:----5~------5~-------------------------------------------------------|
00:00 / 00:00
Outros vídeos desta música
Repetir
Outros vídeos desta música
Composição de Armandinho
Colaboração e revisão:
  • Felipe Moraes
4.531 exibições

0 comentários

Ver todos os comentários

Conseguiu tocar?

0 Tocaram 0 Ainda não

Grave um vídeo tocando Ursinho de Dormir e nos envie!

Entre para oCifra Club PRO

Tenha acesso a benefícios exclusivos no App e no Site

  • Chega de anúncios

  • Prioridade de compra em lançamentos

  • Mais recursos no app do Afinador

  • Atendimento Prioritário

  • Descontos nos produtos Cifra Club

  • Ajude a produzir mais conteúdo

00:00 / 00:00

Cifra Club Pro

Aproveite o Cifra Club com benefícios exclusivos e sem anúncios
Cifra Club Pro
Aproveite o Cifra Club com benefícios exclusivos e sem anúncios
OK