Cifra Club

Pirraça

Asa de Águia

Cifra: Principal (violão e guitarra)
Selo Cifra Club: esta cifra foi revisada para atender aos critérios oficiais da nossa Equipe de Qualidade.
tom: Eb
(part.: Jorge e Mateus)

(intro)  2x ( Ab Bb Eb )  2x( Ab Eb )( Bb)


E|-----------------------|
B|-----------------------|
G|-----------5-5-7-8-8---|
D|-----5-6-8--8----------|
A|--6-8------------------|
E|-----------------------|

E|--11-10---------------------11-10---------------------|
B|-------11-13-13-11-13-11----------11-13-13-11-13-11---|
G|------------------------12-----------------------12---|
D|------------------------------------------------------|
A|------------------------------------------------------|
E|------------------------------------------------------|

E|----------------------------------11---10-8-------|
B|------8-9-9-8---------8-9-9-8----------------11---|
G|--8-10-------10-8-8-10---------10-8---------------|
D|--------------------------------------------------|
A|--------------------------------------------------|
E|--------------------------------------------------|

Eb                       Cm
Vou pagar promessas de joelhos
 Ab                Bb
Só pra esquecer você
Eb                    Cm
Vou passar uns dias lá na lua
Ab                  Bb
Eu não quero mais te ver

Gm                     Cm         Gm
Vou falar pro meu coração bater o pé
                     Cm
Pra não morrer de paixão, não quero
Ab           Bb
Mais esse amor, que me faz tão mal
Ab                   Bb             Eb
Chega de sofrer... adeus, ponto final

(refrão)
                 Ab   Bb      Eb
Não vou mais chorar, como chorei
            Ab    Bb          Eb
Nem me lembrar, que um dia te amei
             Gm               Cm
Bye Bye tristeza, adeus solidão
               Ab   Bb          Eb
Vou fazer pirraça pro seu coração  (2x)

(intro)
00:00 / 00:00
Outros vídeos desta música
Repetir
Outros vídeos desta música
1.362 exibições
    • ½ Tom
    • A
    • Bb
    • B
    • C
    • Db
    • D
    • Eb
    • E
    • F
    • F#
    • G
    • Ab
  • Adicionar à lista

Afinação da cifra

Afinador online

    0 comentários

    Ver todos os comentários

    Entre para o Cifra Club PRO

    Tenha acesso a benefícios exclusivos no App e no Site

    • Chega de anúncios

    • Mais recursos no app do Afinador

    • Atendimento Prioritário

    • Aumente seu limite de lista

    • Ajude a produzir mais conteúdo

    00:00 / 00:00

    Cifra Club Pro

    Aproveite o Cifra Club com benefícios exclusivos e sem anúncios
    Cifra Club Pro
    Aproveite o Cifra Club com benefícios exclusivos e sem anúncios
    OK