Cifra Club

A Little Piece Of Heaven

Avenged Sevenfold

Cifra: Principal
exibições 193.835
Tom: F
Intro 2x: Dm  Fm

E|-----------------------------------------------------------------|
B|-3-5h6---5---3---2-3h5---3-----------------------------------2---|
G|-3-------2-------------------2---3-------2-------0-2h3---2-------|
D|-----------------2-------0-----------5-------3-------------------|
A|---------------------------------------------------------0-------|
D|---------------------------------5-------3-------2---------------|

E|---------------------------------------------------------|
B|-3-5h6---5---3---2-3h5---3-------------------------------|
G|-3-------2-------------------2---3-------2-------0-------|
D|-----------------2-------0-----------5-------3-----3h2---|
A|---------------------------------------------------------|
D|---------------------------------5-------3-------2-------|

( Guitarras após solo de intro )
E|--------------------------------------------------------------|
B|--------------------------------------------------------------|
G|--------------------------------------------------------------|
D|---0-0--0-0-0-0--0-0--0-0-0-0--0-0--0-0-0-0--0-0--0-0-0-0-----|
A|---0-0--0-0-0-0--0-0--0-0-0-0--0-0--0-0-0-0--0-0--0-0-0-0-----|
D|---0-0--0-0-0-0--0-0--0-0-0-0--0-0--0-0-0-0--0-0--0-0-0-0-----|
pm   • •  • • • •  • •  • • • •  • •  • • • •  • •  • • • •
E|--------------------------------------------------------------|
B|--------------------------------------------------------------|
G|--------------------------------------------------------------|
D|---3-3--3-3-3-3--3-3--3-3-3-3--3-3--3-3-3-3--3-3--3-3-3-3-----|
A|---3-3--3-3-3-3--3-3--3-3-3-3--3-3--3-3-3-3--3-3--3-3-3-3-----|
D|---3-3--3-3-3-3--3-3--3-3-3-3--3-3--3-3-3-3--3-3--3-3-3-3-----|
pm   • •  • • • •  • •  • • • •  • •  • • • •  • •  • • • •
E|--------------------------------------------------------------|
B|--------------------------------------------------------------|
G|--------------------------------------------------------------|
D|---0-0--0-0-0-0--0-0--0-0-0-0--0-0--0-0-0-0--0-0--0-0-0-0-----|
A|---0-0--0-0-0-0--0-0--0-0-0-0--0-0--0-0-0-0--0-0--0-0-0-0-----|
D|---0-0--0-0-0-0--0-0--0-0-0-0--0-0--0-0-0-0--0-0--0-0-0-0-----|
pm   • •  • • • •  • •  • • • •  • •  • • • •  • •  • • • •
E|--------------------------------------------------------------|
B|--------------------------------------------------------------|
G|--------------------------------------------------------------|
D|---3-3--3-3-3-3--3-3--3-3-3-3--3-3--3-3-3-3--3-3--3-3-3-3-----|
A|---3-3--3-3-3-3--3-3--3-3-3-3--3-3--3-3-3-3--3-3--3-3-3-3-----|
D|---3-3--3-3-3-3--3-3--3-3-3-3--3-3--3-3-3-3--3-3--3-3-3-3-----|
pm   • •  • • • •  • •  • • • •  • •  • • • •  • •  • • • •
  Dm                        C#5
      Before the story begins, is it such a sin,
E|-------------------------------------------------|
B|-------------------------------------------------|
G|-------------------------------------------------|
D|-0--0----0--0----0--0----6--6----6--6----6--6----|
A|-0--0----0--0----0--0----4--4----4--4----4--4----|
D|-0--0----0--0----0--0----------------------------|
pm •  •    •  •    •  •    •  •    •  •    •  •

Fm                         Abm
 For me to take what's mine, until the end of time?
E|-------------------------------------------------|
B|-------------------------------------------------|
G|-------------------------------------------------|
D|-3--3----3--3----3--3----6--6----6--6----6--6----|
A|-3--3----3--3----3--3----6--6----6--6----6--6----|
D|-3--3----3--3----3--3----6--6----6--6----6--6----|
pm •  •    •  •    •  •    •  •    •  •    •  •

Dm                         C#5
  We were more than friends, before the story ends,
E|-------------------------------------------------|
B|-------------------------------------------------|
G|-------------------------------------------------|
D|-0--0----0--0----0--0----6--6----6--6----6--6----|
A|-0--0----0--0----0--0----4--4----4--4----4--4----|
D|-0--0----0--0----0--0----------------------------|
pm •  •    •  •    •  •    •  •    •  •    •  •

Fm                         Abm
And I will take what's mine, create what, God would never design.
E|-------------------------------------------------|
B|-------------------------------------------------|
G|-------------------------------------------------|
D|-3--3----3--3----3--3----6--6----6--6----6--6----|
A|-3--3----3--3----3--3----6--6----6--6----6--6----|
D|-3--3----3--3----3--3----6--6----6--6----6--6----|
pm •  •    •  •    •  •    •  •    •  •    •  •

Dm                        A
Our love had been so strong for far too long,
E|-------------5~------------------------9~----------------|
B|-----------6~-----------------------10~------------------|
G|-------3/7~----------------------/9~---------------------|
D|---------------------------------------------------------|
A|---------------------------------------------------------|
D|---------------------------------------------------------|

Abm                            Dm
I was weak with fear that   Something would go wrong,
E|---------7~-------------||---5~-----------------|
B|--------9~--------------||---6~-----------------|
G|------/8~---------------||---5~-----------------|
D|------------------------||----------------------|
A|------------------------||----------------------|
D|------------------------||----------------------|

Dm                 A
Before the possibilities came true,
E|-------------5~------------------------9~----------------|
B|-----------6~-----------------------10~------------------|
G|-------3/7~----------------------/9~---------------------|
D|---------------------------------------------------------|
A|---------------------------------------------------------|
D|---------------------------------------------------------|

Abm             Dm
I took all possibility from you
E|---------7~-------------||---5~-----------------|
B|--------9~--------------||---6~-----------------|
G|------/8~---------------||---5~-----------------|
D|------------------------||----------------------|
A|------------------------||----------------------|
D|------------------------||----------------------|

 Dm       F             Fm      Abm
   Almost laughed myself to tears, (CRAZY LAUGHTER)
E|----------------------------------------|
B|----------------------------------------|
G|------------------------5-4~~~----------|
D|-------5-7~~------5-6-------------------|
A|-5-7-8----------8-----------------------|
D|----------------------------------------|

Dm      F         Fm       Dm
    Conjuring her deepest fears (COME HERE YA' FUCKIN' BITCH!!!)
E|--------------------------------------|
B|--------------------------------------|
G|----------------------5-7~~~----------|
D|-------5-7~~----5-6-------------------|
A|-5-7-8--------8-----------------------|
D|--------------------------------------|

 Dm                     C#5           ( F5  Ab5 )  (3x)
  Must have stabbed her fifty fucking times, I can't believe it,
E|--------------------------------------------------------------|
B|--------------------------------------------------------------|
G|--------------------------------------------------------------|
D|-7---------------------6--------------------------------------|
A|-5---------------------4--------------------------------------|
D|--------------------------------------3---6---3---6---3---6---|

 Dm                     C#5           ( F5  Ab5 )  (3x)
  Ripped her heart out right before her eyes,Eyes over easy,
E|--------------------------------------------------------------|
B|--------------------------------------------------------------|
G|--------------------------------------------------------------|
D|-7---------------------6--------------------------------------|
A|-5---------------------4--------------------------------------|
D|--------------------------------------3---6---3---6---3---6---|

 ( Ab5 B5  Ab5 B5  Ab5 B5 )
  Eat it, eat it, eat it
E|-------------------------|
B|-------------------------|
G|-------------------------|
D|-------------------------|
A|-------------------------|
D|-6---9---6---9---6---9---|

Dm
She was never this good in bed even when she was sleepin'
E|----------------------------------------------------------|
B|----------------------------------------------------------|
G|----------------------------------------------------------|
D|----------------------------------------7--8--7--5--------|
A|-5------------0--5-------------0--5--8--------------8--7--|
D|----------------------------------------------------------|

A
Now she's just so perfect I've Never been quite so fucking deep in
E|----------------------------------------------------------|
B|----------------------------------------------------------|
G|----------------------------------------------------------|
D|----------------------------------------7--8--7--5--------|
A|-4------------0--4-------------0--4--7--------------8--7--|
D|----------------------------------------------------------|

            Dm              Bb
It goes on, and on, and on,
                  Dm                       Bb
I can keep you lookin' young and preserved forever,
        Dm                             Bb
With a fountain to spray on your youth whenever

(the string walk down section which I simplified is now over)

             Bb                           C
'Cause I really always knew that my little crime
             F                                 Dm
Would be cold that's why I got a heater for your thighs
         Bb       C                    F
And I know, I know it's not your time
           Dm
But bye, bye
        Bb                              C
And a word to the wise when the fire dies
                A7                  ( Dm C Bb )
You think it's over but it's just begun
                  C
But baby don't cry

                 Bb                     C
You had my heart, at least for the most part
          F             Em           Dm       C     Bb
'Cause everybody's gotta die sometime, we fell apart
                C
Let's make a new start
          F             Em         Dm          C     Bb
'Cause everybody's gotta die sometime yea-yeah
                  C
But baby don't cry-ay-ay-ay-ay

(Repeat all relevant parts until the end of the second chorus)

Interludio:
   Dm     Fm     Em     Db5     Fm    Ab5    Gm     Em
E|---------------------------------------------------------|
B|---------------------------------------------------------|
G|---3-2----3-2----3-2----3-2----6-5----6-5----6-5----6-5--|   (2x)
D|---------------------------------------------------------|
A|----------------------4----------------------------------|
D|-0------3------2-------------3------6------5------2------|

Dm     Bb      Gm         F
     I    will suffer for so long

(What will you do, not long enough)
               Gm
To make it up to you
              F
(I pray to God that you do)
              Gm
I'll do whatever you want me to do
  A                                   Dm
(Well then I'll grant you one chance)
       Bb   Gm
And if it's not enough
                                 F
(If it's not enough, If it's not enough)
         Gm
If it's not enough

(Not enough)
F
Try again

(Try again)
Gm
And again

(And again)
A
Over and over again

Dm
We're coming back, coming back   We'll live forever, live forever
E|-----------------------------------------------------------------|
B|-----------------------------------------------------------------|
G|-----------------------------------------------------------------|
D|-0--------------------------2-0--------------------------------5-|
A|-0--------------------------0-0--------------------------------3-|
D|-0----------------------------0----------------------------------|

Fm
Let's have wedding, have a wedding Let's start the killing, start the killing
E|-----------------------------------------------------------------|
B|-----------------------------------------------------------------|
G|-----------------------------------------------------------------|
D|-3--------------------------5-3--------------------------------2-|
A|-3--------------------------3-3--------------------------------0-|
D|-3----------------------------3----------------------------------|

( Dm  Fm ) (2x) Ab

And afterward (during the oooooohh-ing):
E|-----------------------------------------------------------------|
B|-3-5h6---5---3---2-3h5---3-----------------------------------2---|
G|-3-------2-------------------2---3-------2-------0-2h3---2-------|
D|-----------------2-------0-----------5-------3-------------------|
A|---------------------------------------------------------0-------|
D|---------------------------------5-------3-------2---------------|

E|---------------------------------------------------------|
B|-3-5h6---5---3---2-3h5---3-------------------------------|
G|-3-------2-------------------2---3-------2-------0-------|
D|-----------------2-------0-----------5-------3-----3h2---|
A|---------------------------------------------------------|
D|---------------------------------5-------3-------2-------|

Do you take this man in death for the rest of your unnatural life?
(Yes, I do.)
Do you take this woman in death for the rest of your unnatural life?
(I do)
I now pronounce you...
Acordes para:
    Composição: Avenged SevenfoldColaboração e revisão:

    0 comentários

      mostrar mais comentários

      Conseguiu tocar?

      41tocaram2ainda não

      Grave um vídeo tocando A Little Piece Of Heaven e mande pra gente!

      00:00 / 00:00
      outros vídeos desta música
      repetirqualidadeautomática
      Outro vídeos desta música
        00:00 / 00:00
        automática
        OK