Cifra Club

Knockin' On Heaven's Door

Avril Lavigne

Tab de baixo: Principal
exibições 5.942
Assim permanece a música inteira:  
G:--------------------------------------------|  
D:--------------------------------------------|   4X  
A:-----------------5---5-5-5-5----3--3-3-3----|  
E:--3---3-3-3-3----------------------------5--|  
  
  
Viradas:  
G:-----------------------------------------------------  
D:-----------------------------------------------------  
A:-----------------5---5-5-5-5----3----3-2-0-----------  
E:--3---3-3-3-3------------------------------5-3------- 
Colaboração e revisão:
  • Hellektra

0 comentários

    mostrar mais comentários

    Conseguiu tocar?

    2tocaram0ainda não

    Grave um vídeo tocando Knockin' On Heaven's Door e mande pra gente!

    00:00 / 00:00
    outros vídeos desta música
    repetirqualidadeautomática
    Outro vídeos desta música
      00:00 / 00:00
      automática
      OK