Cifra Club

Por Que a Gente é Assim

Barão Vermelho

Cifra: Principal
exibições 249.612
Tom: D
RIFF 1
E|-X---X-X----X-X--X-X|
A|-X---X-X----X-X--3/5|
D|-2---2-2----2-2--5/7|
G|-2---2-2----2-2--5/7|
B|-X---X-X----X-X--X-X|
E|-X---X-X----X-X--X-X|
(4 à 6x)
E|--0-0/2-0--------|
B|----------2------|
G|------------2----|
A|-----------------|
E|-----------------|

(A5, C5 e D5)
(Fique à vontade quanto as batidas)

RIFF 2

Passagem 1

E|-2-3|
A|-4-5|
G|-4-5|
B|-2-4|
E|-2-2|

(F#m e G)




Riff 1 - (Parte 1)

Mais uma dose, é claro que eu estou afim
a noite nunca tem fim (Parada)
A5                       C5 D5
Por que, a gente é assim ...

Agora fica comigo, e não, não desgruda de mim
vê se ao menos me engole BABY ...(Parada)
A5                    C5 D5
Não me mastigue assim.


(Parte 2)

D                 G
canibais de nós mesmos
D                      Bm (Passagem 1)
antes que a terra nos coma 
G              D
sem grama sem dramas,
A
Porque  agente é assim? (Parada)


Riff 1 - (Parte 1)

Mais uma dose, é claro que eu estou afim
a noite nunca tem fim (Parada)
A5                       C5 D5
Por que, a gente é assim ...

Agora fica comigo, e não, não desgruda de mim
vê se ao menos me engole BABY ...(Parada)
A5                   C5 D5
Não me mastigue assim.

Base Solo:
(A7+, G, A7+, F#m, A, G, F#m, A7+,)
Solo:
E|-----------------------------------------------------------------
B|------------10b-----------------------10/14--12b--10b------------
G|--9--11--9-------11--9b------9--11--9-----------------11b--9b--/-
D|-----------------------------------------------------------------
A|-----------------------------------------------------------------
E|-----------------------------------------------------------------

E|---------------------------------------|
B|---------------------------------------|
G|---9--11--9----------------------------|
D|-------------11-11/12-11-9-9/11--------|
A|--------------------------------12~~---|
E|---------------------------------------|

(RIFF2) (Ligação entre o solo e a estrofe)

E|-------------------------|
B|-------------------------|
G|-------------------------|
D|---7-6-5-4---------------|
A|---7-6-5-4---------------|
E|---5-4-3-2---------------|


F#m            C#m      Bm
Você tem exatamente, três mil horas pra parar de        
D7+   (RIFF3)
me beijar
A7+                  C#m      Bm
meu bem, você tem tudo pra me conquistar ...
A7+             C#m            Bm
voce tem apenas um segundo, 1 segundo pra aprender 
D7+    (RIFF3)
a me amar ...
A7+           C#m          D
vc tem a vida inteira baby, a vida inteira ...
(A5, C5, D5)
pra me devorar!


(RIFF 3)
E|--0-0/2-0--------|
B|----------2------|
G|------------2----|
D|-----------------|
A|-----------------|
E|-----------------|
Acordes para:
    Composição: Cazuza / Ezequiel NevesColaboração e revisão:
    • Jonathan Beskow
    • pedro carvalho
    • Helder Santos

    0 comentários

      mostrar mais comentários

      Conseguiu tocar?

      8tocaram0ainda não

      Grave um vídeo tocando Por Que a Gente é Assim e mande pra gente!

      00:00 / 00:00
      outros vídeos desta música
      repetirqualidadeautomática
      Outro vídeos desta música
        00:00 / 00:00
        automática
        OK