Cifra Club

Por Que a Gente É Assim?

Barão Vermelho

Cifra: Principal (violão e guitarra)
tom: A
Riff 1
E|-X---X-X----X-X--X-X|
B|-X---X-X----X-X--X-X|
G|-2---2-2----2-2--5/7|
D|-2---2-2----2-2--5/7|
A|-X---X-X----X-X--3/5|
E|-X---X-X----X-X--X-X|
(4 à 6x)

E|--0-0/2-0--------|
B|----------2------|
G|------------2----|
D|-----------------|
A|-----------------|

(A5, C5 e D5)
(fique à vontade quanto as batidas)

[Riff 2]

[passagem] 1

E|-2-3|
A|-4-5|
G|-4-5|
B|-2-4|
E|-2-2|

(F#m e G)




Riff 1 - (parte 1)

Mais uma dose, é claro que eu estou afim
A noite nunca tem fim (parada)
A5                       C5 D5
Por que, a gente é assim ...

Agora fica comigo, e não, não desgruda de mim
Vê se ao menos me engole baby ...(parada)
A5                    C5 D5
Não me mastigue assim.


[Parte 2]

D                 G
Canibais de nós mesmos
D                      Bm (Passagem 1) A
Antes que a terra nos coma 
G               D
Cem gramas sem dramas,
A
Porque  agente é assim? (parada)


Riff 1 - (parte 1)

Mais uma dose, é claro que eu estou afim
A noite nunca tem fim (parada)
A5                       C5 D5
Por que, a gente é assim ...

Agora fica comigo, e não, não desgruda de mim
Vê se ao menos me engole baby ...(parada)
A5                   C5 D5
Não me mastigue assim.

[Base Solo]:
(A7+, G, A7+, F#m, A, G, F#m, A7+,)
[Solo]
E|-----------------------------------------------------------------|
B|------------10b-----------------------10/14--12b--10b------------|
G|--9--11--9-------11--9b------9--11--9-----------------11b--9b--/-|
D|-----------------------------------------------------------------|
A|-----------------------------------------------------------------|
E|-----------------------------------------------------------------|

E|---------------------------------------|
B|---------------------------------------|
G|---9--11--9----------------------------|
D|-------------11-11/12-11-9-9/11--------|
A|--------------------------------12~~---|
E|---------------------------------------|

(riff2) (ligação entre o solo e a estrofe)

E|-------------------------|
B|-------------------------|
G|-------------------------|
D|---7-6-5-4---------------|
A|---7-6-5-4---------------|
E|---5-4-3-2---------------|


F#m            C#m      Bm
Você tem exatamente, três mil horas pra parar de        
D7+   (Riff 3)
Me beijar
A7+                  C#m      Bm
Meu bem, você tem tudo pra me conquistar ...
A7+             C#m            Bm
Voce tem apenas um segundo, 1 segundo pra aprender 
D7+    (Riff 3)
A me amar ...
A7+           C#m          D
Vc tem a vida inteira baby, a vida inteira ...
(A5, C5, D5)
Pra me devorar!


Riff 3
E|--0-0/2-0--------|
B|----------2------|
G|------------2----|
D|-----------------|
A|-----------------|
E|-----------------|
00:00 / 00:00
Outros vídeos desta música
Repetir
Outros vídeos desta música
Composição de Agenor Neto / Ezequiel Neves / Jose Neves / Roberto Frejat
Colaboração e revisão:
302.607 exibições
    • ½ Tom
    • A
    • Bb
    • B
    • C
    • Db
    • D
    • Eb
    • E
    • F
    • F#
    • G
    • Ab
  • Adicionar à lista

    0 comentários

    Ver todos os comentários

    Conseguiu tocar?

    10 Tocaram 0 Ainda não

    Grave um vídeo tocando Por Que a Gente É Assim? e nos envie!

    Entre para oCifra Club PRO

    Tenha acesso a benefícios exclusivos no App e no Site

    • Chega de anúncios

    • Prioridade de compra em lançamentos

    • Mais recursos no app do Afinador

    • Atendimento Prioritário

    • Descontos nos produtos Cifra Club

    • Ajude a produzir mais conteúdo

    00:00 / 00:00

    Cifra Club Pro

    Aproveite o Cifra Club com benefícios exclusivos e sem anúncios
    Cifra Club Pro
    Aproveite o Cifra Club com benefícios exclusivos e sem anúncios
    OK