Cifra Club

Aprenda

Quando o Sol Bater Na Janela do Seu Quarto

Barão Vermelho

Cifra: Principal (violão e guitarra)
Tom: C
(intro) D

(refrão)
         C  C7+  F  Dm
Quando o sol   bater
     G           F        C
na janela do teu quarto
G        C  C7+ F  Dm   G
Lembra e ve... eee...uuu..
        F          C
Que o caminho é um só

F
Porque esperar se podemos
                  G
comecar tudo de novo
Agora mesmo a
      F
humanidade é desumana mas
ainda temos chance
                G
o sol nasce pra todos
só não sabe quem não quer

         C  C7+  F  Dm
Quando o sol   bater
     G           F        C
na janela do teu quarto
G        C  C7+ F  Dm   G
Lembra e ve... eee...uuu..
        F          C
Que o caminho é um só

Dm                   G
Até bem pouco tempo atrás
                Dm
poderíamos mudar  o mundo
        G
Quem roubou nossa coragem?
Am     Bb
Tudo é dor
F      C   G          Dm
E toda dor   vem do desejo
          G
de não sentirmos dor
         C  C7+  F  Dm
Quando o sol   bater
     G           F        C
na janela do teu quarto
G        C  C7+ F  Dm   G
Lembra e ve... eee...uuu..
        F          C
Que o caminho é um só

(solo) C F G C F G (2x)
       C C7+ F Dm G F C


E|---------------------------------------------------------------------------
B|-17-13-15-17-13-17-15-13------17-15-13--13-12-13-15--17--17-13-15-17-13-17-
G|--------------------------14-----------------------------------------------
D|---------------------------------------------------------------------------
A|---------------------------------------------------------------------------
E|---------------------------------------------------------------------------


E|-----------------------------------8-8-----8-8------------------8-10b--
B|-15-13-----17--15-13-12---------7b------7b-------7b--8-8-8--10---------
G|-------14--------------------------------------------------------------
D|-----------------------------------------------------------------------
A|-----------------------------------------------------------------------
E|-----------------------------------------------------------------------


E|--10b--10-8--------------------------------------------------------------
B|-------------10--8-------6---5-6-5-6-5-6b-6----665-----------------------
G|-----------------------5----------------------------7-5b-5b--5-2---------
D|----------------------------------------------------------------5-2------
A|--------------------------------------------------------------------5-3--
E|-------------------------------------------------------------------------


         C  C7+  F  Dm     G
Lembra e vê... eeee...uuu..
        F          C  (F C)
Que o caminho é um só
               F   C
Quando o sol bater
Composição de Dado Villa-Lobos / Renato Russo
Colaboração e revisão:
168.798 exibições
    • ½ Tom
    • A
    • Bb
    • B
    • C
    • Db
    • D
    • Eb
    • E
    • F
    • F#
    • G
    • Ab
  • Adicionar à lista

    0 comentários

    Mostrar mais comentários

    Conseguiu tocar?

    10 Tocaram 0 Ainda não

    Grave um vídeo tocando Quando o Sol Bater Na Janela do Seu Quarto e mande pra gente!

    00:00 / 00:00
    outros vídeos desta música
    repetir qualidade Automático
    Outros vídeos desta música
    00:00 / 00:00
    Automático

    Cifra Club Pro

    Aproveite o Cifra Club com benefícios exclusivos e sem anúncios
    7 dias grátis
    Cifra Club Pro
    Aproveite o Cifra Club com benefícios exclusivos e sem anúncios
    7 dias grátis
    OK