Cifra Club

Aprenda

New Religion

Black Veil Brides

Cifra: Principal (violão e guitarra)
Tom: F (forma dos acordes no tom de G) Afinação: D G C F A D
--------------------------------------------
--------------------------------------------
--------------------------------------------
-------------------------8-7-5--------------
------5---3---5----------------9------------
0-0-0---0---0---0-0-0-----------------------

--------------------------------------------
--------------------------------------------
--------------------------------------------
--------------------------------------------
-------5---3---5----------------------------
-0-0-0---0---0---0--0-3-5-6-5-3-0-3---------

---------------------------------------------
---------------------------------------------
---------------------------------------------
-------------------------8-7-5---5-7-8-------
------5---3---5----------------9-------------
0-0-0---0---0---0-0-0------------------------

-------------11-10-8--------------------------
---------------------11-10-8------------------
6-7-6---6--------------------11-8-7-----------
------8-----------------------------11-8-7----
----------------------------------------------
----------------------------------------------

Composição de Andy Biersack / Ashley Purdy / Jacob Pitts / Josh Abraham / Luke Walker
Colaboração e revisão:
  • Guh h
589 exibições
    • ½ Tom
    • A
    • Bb
    • B
    • C
    • Db
    • D
    • Eb
    • E
    • F
    • F#
    • G
    • Ab
  • Adicionar à lista

    0 comentários

    Mostrar mais comentários
    00:00 / 00:00
    outros vídeos desta música
    repetir qualidade Automático
    Outros vídeos desta música
    00:00 / 00:00
    Automático

    Cifra Club Pro

    Aproveite o Cifra Club com benefícios exclusivos e sem anúncios
    Cifra Club Pro
    Aproveite o Cifra Club com benefícios exclusivos e sem anúncios
    OK