Cifra Club

Knives And Pens

Black Veil Brides

Cifra: Principal
exibições 58.822
Tom: C
INTRO: guitarra 1

Parte 1
pm. .  .     .      .     .
E|--------------------------------------------
B|--------------------------------------------
G|--------------------------------------------
D|---------------------------------7-5-----8--
A|--------8-----10-----8-----8-7-5-----8-7-8--
D|--0--0-----0------0-----0----------------8--

------------------------------------------------------------------|
------------------------------------------------------------------|
------------------------------------------------------------------|
-----8---------------------14----10h-12p-10h-12p-10h-12p-10h-12p--|
----------12----8--10---------------------------------------------|
--8----8-----8---------10-----------------------------------------|

pm. .  .     .      .     .
E|-------------------------------------------|
B|-------------------------------------------|
G|-------------------------------------------|
D|---------------------------------7-5-----8-|
A|--------8-----10-----8-----8-7-5-----8-7-8-|
D|--0--0-----0------0-----0----------------8-|

----------------------------------------------|
----------------------------------------------|
----------------------------------------------|
------8---------------------15-14-12----------|
-----------12----8-10----------------13-12----|
---8----8-----8-------10-10----------------12-|

Parte 2:
pm. .  .     .      .     .
E|--------------------------------------------
B|--------------------------------------------
G|--------------------------------------------
D|---------------------------------7-5-----8--
A|--------8-----10-----8-----8-7-5-----8-7-8--
D|--0--0-----0------0-----0----------------8--

------------------------------------------------------------------|
------------------------------------------------------------------|
------------------------------------------------------------------|
-----8---------------------14----10h-12p-10h-12p-10h-12p-10h-12p--|
----------12----8--10---------------------------------------------|
--8----8-----8---------10-----------------------------------------

pm. .  .     .      .     .
E|-------------------------------------------|
B|-------------------------------------------|
G|-------------------------------------------|
D|---------------------------------7-5-----8-|
A|--------8-----10-----8-----8-7-5-----8-7-8-|
D|--0--0-----0------0-----0----------------8-|

----------------------------------------------|
----------------------------------------------|
----------------------------------------------|
------8---------------------15-14-12----------|
-----------12----8-10----------------13-12----|
---8----8-----8-------10-10----------------12-|

Parte 3
pm. .  .     .      .     .
E|-------------------------------------------|
B|-------------------------------------------|
G|-------------------------------------------|
D|---------------------------------7-5-----8-|
A|--------8-----10-----8-----8-7-5-----8-7-8-|
D|--0--0-----0------0-----0----------------8-|

------------------------------------|
------------------------------------|
------------------------------------|
------8-----------------------------|
-----------12--10--8--10------------|
---8----8---------------------------|

Intro: guitarra 2

Parte 1:
E|-------------------------|
B|-------------------------|
G|-------------------------|
D|--0---------10--10-------|
A|--0---------7---8--------|
D|--0---------7---8--------|

---------------------------|
---------------------------|
---------------------------|
----0---------10--10-------|
----0---------7---8--------|
----0---------7---8--------|

Parte 2:
pm. .  .     .      .     .
E|-------------------------------------------------|
B|-------------------------------------------------|
G|-------------------------------------------------|
D|-----------------------------------10-8-------8--|
A|--------8-----10-----8-----12-10-8------12-10-8--|
D|--0--0-----0------0-----0---------------------8--|

--------------------------------------------------------------|
--------------------------------------------------------------|
--------------------------------------------------------------|
-----8---------------------12----9h-10p-9h-10p-9h-10p-9h-10p--|
----------12----8--10-----------------------------------------|
--8----8-----8---------8--------------------------------------|

Parte 2:
E|-------------------------------------------------|
B|-------------------------------------------------|
G|-------------------------------------------------|
D|-----------------------------------10-8-------8--|
A|--------8-----10-----8-----12-10-8------12-10-8--|
D|--0--0-----0------0-----0---------------------8--|

---------------------------------------------------------|
---------------------------------------------------------|
-----------------------14-12-10--------------------------|
-----8--------------------------12-10--------------------|
----------12----8--10-----------------8------------------|
--8----8-----8-------------------------------------------|

Parte 3:
pm. .  .     .      .     .
E|-------------------------------------------------|
B|-------------------------------------------------|
G|-------------------------------------------------|
D|-----------------------------------10-8-------8--|
A|--------8-----10-----8-----12-10-8------12-10-8--|
D|--0--0-----0------0-----0---------------------8--|

---------------------------------|
---------------------------------|
---------------------------------|
-----8---------------------------|
----------12-10-9-7--------------|
--8----8-------------------------|


PARTE 1: guitarra 1 e 2
E|-------------------------|
B|-------------------------|
G|-------------------------|
D|--0---------10--10-------|
A|--0---------7---8--------|
D|--0---------7---8--------|

---------------------------|
---------------------------|
---------------------------|
----0---------10--10-------|
----0---------7---8--------|
----0---------7---8--------|

pm.       . . .          . . . .
E|--------------------------------------|
B|--------------------------------------|
G|--------------------------------------|
D|--0--0-----------0--0-----------------|
A|--0--0--0-0-0----0--0--0-0-0-0--------|
D|--0--0--0-0-0----0--0--0-0-0-0--------|


  E   E   S  S  S  E.   E   S  S  S  S
----------------------------------------|
----------------------------------------|
----------------------------------------|
---10--10-10-10-10-10---10--10-10-10-10-|
---7---7--7--7--7--7----8---8--8--8--8--|
---7---7--7--7--7--7----8---8--8--8--8--|

pm.       . . .          . . . .
E|--------------------------------------|
B|--------------------------------------|
G|--------------------------------------|
D|--0--0-----------0--0-----------------|
A|--0--0--0-0-0----0--0--0-0-0-0--------|
D|--0--0--0-0-0----0--0--0-0-0-0--------|

----------------------------------------|
----------------------------------------|
----------------------------------------|
---10--10-10-10-10-10---10--10-10-10-10-|
---7---7--7--7--7--7----8---8--8--8--8--|
---7---7--7--7--7--7----8---8--8--8--8--|


SOLO PRE-REFRÃO 1: guitarra 1
E|------17-20-17--------------------------------|
B|--18-----------18-----------------------------|
G|------------------17--------------------------|
D|---------------------20-17-20-17----17--------|
A|---------------------------------20----20-----|
D|----------------------------------------------|

E|------17-18-17--------------------------------|
B|--18-----------18-----------------------------|
G|------------------17--------------------------|
D|---------------------20-17-20-17----17--------|
A|---------------------------------20----20-----|
D|----------------------------------------------|

E|--20--17-----------------------------------------|
B|---------18--------------------------------------|
G|------------17-----------------------------------|
D|---------------20-17-20-17-20-19-17-19-17\-------|
A|-------------------------------------------------|
D|-------------------------------------------------|

solo pre-refrão 1: guitarra 2
E|------------------------------------------|
B|------------------------------------------|
G|------------------------------------------|
D|--7-7-7-7-7-7-7-7--8-5-5-5-5-5-5-5--------|
A|--3-3-3-3-3-3-3-3--5-5-5-5-5-5-5-5--------|
D|--3-3-3-3-3-3-3-3--5-5-5-5-5-5-5-5--------|

E|-------------------------------------------------------|
B|-------------------------------------------------------|
G|-------------------------------------------------------|
D|-10-10-10-10-10-10-10-10-10--10-10-10-10-10-10-10-10---|
A|--7--7--7--7--7--7--7--7--7---8--8--8--8--8--8--8--8---|
D|--7--7--7--7--7--7--7--7--7---8--8--8--8--8--8--8--8---|

pm.     .  .  .  .  .  .  .  .
E|-------------------------------|
B|-------------------------------|
G|-------------------------------|
D|--10---------------------------|
A|--10--10-10-10-10-10-10-10-10--|
D|--10--10-10-10-10-10-10-10-10--|

REFRÃO 1: guitarra 1
E|------------------------------------------|
B|------------------------------------------|
G|------------------------------------------|
D|------------------------------------------|
A|-----8-10-8-12-8----8----8-10-8-12-8----8-|
D|--12-------------12---12-------------12---|

--------------------------------------------|
--------------------------------------------|
--------------------------------------------|
--------------------------------------------|
-----8-10-8-12-8----8----8-10-8-12-8--------|
--12-------------12---12-------------12-----|

pm. .  .     .  .     .  .     .  .     .  .
E|--------------------------------------------------|
B|--------------------------------------------------|
G|--------------------------------------------------|
D|--------------------------------------------------|
A|--------15-------12-------13-------12-------12-10-|
D|--0--0-----0--0-----0--0-----0--0-----0--0--------|

  .  .     .  .     .  .     .  .     .  .
----------------------------------------------------|
----------------------------------------------------|
----------------------------------------------------|
----------------------------------------------------|
--------15-------12-------13-------12-------12-13---|
--0--0-----0--0-----0--0-----0--0-----0--0----------|

E|------------------------------------------|
B|------------------------------------------|
G|------------------------------------------|
D|------------------------------------------|
A|-----8-10-8-12-8----8----8-10-8-12-8----8-|
D|--12-------------12---12-------------12---|

--------------------------------------------|
--------------------------------------------|
--------------------------------------------|
--------------------------------------------|
-----8-10-8-12-8----8----8-10-8-12-8--------|
--12-------------12---12-------------12-----|

pm. .  .     .  .     .  .     .  .     .  .
E|--------------------------------------------------|
B|--------------------------------------------------|
G|--------------------------------------------------|
D|--------------------------------------------------|
A|--------15-------12-------13-------12-------12-10-|
D|--0--0-----0--0-----0--0-----0--0-----0--0--------|

  .  .     .  .     .  .     .  .     .  .
----------------------------------------------------|
----------------------------------------------------|
----------------------------------------------------|
----------------------------------------------------|
--------15-------12-------13-------12-------12-13---|
--0--0-----0--0-----0--0-----0--0-----0--0----------|

E|--------------------|
B|--------------------|
G|--------------------|
D|--0-0-x--0-0--------|
A|--0-0-x--0-0--------|
D|--0-0-x--0-0--------|

Refrão 1: guitarra 2
E|------------------------------------|
B|------------------------------------|
G|------------------------------------|
D|--8-8-8-8-8-8-8-8-8-8-8-8-8-8-------|
A|--8-8-8-8-8-8-8-8-8-8-8-8-8-8-------|
D|--8-8-8-8-8-8-8-8-8-8-8-8-8-8-------|

E|-----------------------------------------------|
B|-----------------------------------------------|
G|-----------------------------------------------|
D|--10-10-10-10-10-10-10-10-10-10-10-10-10-10----|
A|--10-10-10-10-10-10-10-10-10-10-10-10-10-10----|
D|--10-10-10-10-10-10-10-10-10-10-10-10-10-10----|

pm. .  .     .  .     .  .     .  .     .  .
E|--------------------------------------------------|
B|--------------------------------------------------|
G|--------------------------------------------------|
D|--------------------------------------------------|
A|--------15-------12-------13-------12-------12-10-|
D|--0--0-----0--0-----0--0-----0--0-----0--0--------|

  .  .     .  .     .  .     .  .     .  .
----------------------------------------------------|
----------------------------------------------------|
----------------------------------------------------|
----------------------------------------------------|
--------15-------12-------13-------12-------12-13---|
--0--0-----0--0-----0--0-----0--0-----0--0----------|

E|------------------------------------|
B|------------------------------------|
G|------------------------------------|
D|--8-8-8-8-8-8-8-8-8-8-8-8-8-8-------|
A|--8-8-8-8-8-8-8-8-8-8-8-8-8-8-------|
D|--8-8-8-8-8-8-8-8-8-8-8-8-8-8-------|

E|-----------------------------------------------|
B|-----------------------------------------------|
G|-----------------------------------------------|
D|--10-10-10-10-10-10-10-10-10-10-10-10-10-10----|
A|--10-10-10-10-10-10-10-10-10-10-10-10-10-10----|
D|--10-10-10-10-10-10-10-10-10-10-10-10-10-10----|

pm. .  .     .  .     .  .     .  .     .  .
E|--------------------------------------------------|
B|--------------------------------------------------|
G|--------------------------------------------------|
D|--------------------------------------------------|
A|--------15-------12-------13-------12-------12-10-|
D|--0--0-----0--0-----0--0-----0--0-----0--0--------|

  .  .     .  .     .  .     .  .     .  .
----------------------------------------------------|
----------------------------------------------------|
----------------------------------------------------|
----------------------------------------------------|
--------15-------12-------13-------12-------12-13---|
--0--0-----0--0-----0--0-----0--0-----0--0----------|

E|--------------------|
B|--------------------|
G|--------------------|
D|--0-0-x--0-0--------|
A|--0-0-x--0-0--------|
D|--0-0-x--0-0--------|

Parte 2: guitarra 1 e 2
E|-------------------------|
B|-------------------------|
G|-------------------------|
D|--0---------10--10-------|
A|--0---------7---8--------|
D|--0---------7---8--------|

---------------------------|
---------------------------|
---------------------------|
----0---------10--10-------|
----0---------7---8--------|
----0---------7---8--------|

pm.       . . .          . . . .
E|--------------------------------------|
B|--------------------------------------|
G|--------------------------------------|
D|--0--0-----------0--0-----------------|
A|--0--0--0-0-0----0--0--0-0-0-0--------|
D|--0--0--0-0-0----0--0--0-0-0-0--------|


  E   E   S  S  S  E.   E   S  S  S  S
----------------------------------------|
----------------------------------------|
----------------------------------------|
---10--10-10-10-10-10---10--10-10-10-10-|
---7---7--7--7--7--7----8---8--8--8--8--|
---7---7--7--7--7--7----8---8--8--8--8--|

pm.       . . .          . . . .
E|--------------------------------------|
B|--------------------------------------|
G|--------------------------------------|
D|--0--0-----------0--0-----------------|
A|--0--0--0-0-0----0--0--0-0-0-0--------|
D|--0--0--0-0-0----0--0--0-0-0-0--------|


  E   E   S  S  S  E.   E   S  S  S  S
----------------------------------------|
----------------------------------------|
----------------------------------------|
---10--10-10-10-10-10---10--10-10-10-10-|
---7---7--7--7--7--7----8---8--8--8--8--|
---7---7--7--7--7--7----8---8--8--8--8--|

SOLO PRE-REFRÃO 2:

E|------17-20-17--------------------------------|
B|--18-----------18-----------------------------|
G|------------------17--------------------------|
D|---------------------20-17-20-17----17--------|
A|---------------------------------20----20-----|
D|----------------------------------------------|

E|------17-18-17--------------------------------|
B|--18-----------18-----------------------------|
G|------------------17--------------------------|
D|---------------------20-17-20-17----17--------|
A|---------------------------------20----20-----|
D|----------------------------------------------|

E|--20--17-----------------------------------------|
B|---------18--------------------------------------|
G|------------17-----------------------------------|
D|---------------20-17-20-17-20-19-17-19-17\-------|
A|-------------------------------------------------|
D|-------------------------------------------------|

solo pre-refrão 2: guitarra 2
E|------------------------------------------|
B|------------------------------------------|
G|------------------------------------------|
D|--7-7-7-7-7-7-7-7--8-5-5-5-5-5-5-5--------|
A|--3-3-3-3-3-3-3-3--5-5-5-5-5-5-5-5--------|
D|--3-3-3-3-3-3-3-3--5-5-5-5-5-5-5-5--------|

E|-------------------------------------------------------|
B|-------------------------------------------------------|
G|-------------------------------------------------------|
D|-10-10-10-10-10-10-10-10-10--10-10-10-10-10-10-10-10---|
A|--7--7--7--7--7--7--7--7--7---8--8--8--8--8--8--8--8---|
D|--7--7--7--7--7--7--7--7--7---8--8--8--8--8--8--8--8---|

pm.     .  .  .  .  .  .  .  .
E|-------------------------------|
B|-------------------------------|
G|-------------------------------|
D|--10---------------------------|
A|--10--10-10-10-10-10-10-10-10--|
D|--10--10-10-10-10-10-10-10-10--|


REFRÃO 2: guitarra 1
E|------------------------------------------|
B|------------------------------------------|
G|------------------------------------------|
D|------------------------------------------|
A|-----8-10-8-12-8----8----8-10-8-12-8----8-|
D|--12-------------12---12-------------12---|

--------------------------------------------|
--------------------------------------------|
--------------------------------------------|
--------------------------------------------|
-----8-10-8-12-8----8----8-10-8-12-8--------|
--12-------------12---12-------------12-----|

pm. .  .     .  .     .  .     .  .     .  .
E|--------------------------------------------------|
B|--------------------------------------------------|
G|--------------------------------------------------|
D|--------------------------------------------------|
A|--------15-------12-------13-------12-------12-10-|
D|--0--0-----0--0-----0--0-----0--0-----0--0--------|

  .  .     .  .     .  .     .  .     .  .
----------------------------------------------------|
----------------------------------------------------|
----------------------------------------------------|
----------------------------------------------------|
--------15-------12-------13-------12-------12-13---|
--0--0-----0--0-----0--0-----0--0-----0--0----------|

E|------------------------------------------|
B|------------------------------------------|
G|------------------------------------------|
D|------------------------------------------|
A|-----8-10-8-12-8----8----8-10-8-12-8----8-|
D|--12-------------12---12-------------12---|

--------------------------------------------|
--------------------------------------------|
--------------------------------------------|
--------------------------------------------|
-----8-10-8-12-8----8----8-10-8-12-8--------|
--12-------------12---12-------------12-----|

pm. .  .     .  .     .  .     .  .     .  .
E|--------------------------------------------------|
B|--------------------------------------------------|
G|--------------------------------------------------|
D|--------------------------------------------------|
A|--------15-------12-------13-------12-------12-10-|
D|--0--0-----0--0-----0--0-----0--0-----0--0--------|

  .  .     .  .     .  .     .  .     .  .
----------------------------------------------------|
----------------------------------------------------|
----------------------------------------------------|
----------------------------------------------------|
--------15-------12-------13-------12-------12-13---|
--0--0-----0--0-----0--0-----0--0-----0--0----------|

E|------------------------------------------------------|
B|------------------------------------------------------|
G|-----10-12-10-14-10----10----10-12-10-14-10----10-----|
D|--12----------------12----12----------------12--------|
A|------------------------------------------------------|
D|------------------------------------------------------|

---------------------------------------------------|
---------------------------------------------------|
-----10-12-10-14-10----10----10-12-10-14-10--------|
--12----------------12----12----------------12-----|
---------------------------------------------------|
---------------------------------------------------|

pm. .  .     .  .     .  .     .  .     .  .
E|--------------------------------------------------|
B|--------------------------------------------------|
G|--------------------------------------------------|
D|--------------------------------------------------|
A|--------15-------12-------13-------12-------12-10-|
D|--0--0-----0--0-----0--0-----0--0-----0--0--------|

  .  .     .  .     .  .     .  .     .  .
----------------------------------------------------|
----------------------------------------------------|
----------------------------------------------------|
----------------------------------------------------|
--------15-------12-------13-------12-------12-13---|
--0--0-----0--0-----0--0-----0--0-----0--0----------|

E|------------------------------------------------------|
B|------------------------------------------------------|
G|-----10-12-10-14-10----10----10-12-10-14-10----10-----|
D|--12----------------12----12----------------12--------|
A|------------------------------------------------------|
D|------------------------------------------------------|

---------------------------------------------------|
---------------------------------------------------|
-----10-12-10-14-10----10----10-12-10-14-10--------|
--12----------------12----12----------------12-----|
---------------------------------------------------|
---------------------------------------------------|

pm. .  .     .  .     .  .     .  .     .  .
E|--------------------------------------------------|
B|--------------------------------------------------|
G|--------------------------------------------------|
D|--------------------------------------------------|
A|--------15-------12-------13-------12-------12-10-|
D|--0--0-----0--0-----0--0-----0--0-----0--0--------|

  .  .     .  .     .  .     .  .     .  .
----------------------------------------------------|
----------------------------------------------------|
----------------------------------------------------|
----------------------------------------------------|
--------15-------12-------13-------12-------12-13---|
--0--0-----0--0-----0--0-----0--0-----0--0----------|

E|----------------------------------|
B|----------------------------------|
G|----------------------------------|
D|--0-0-0-0-0-0-0-0-0-0-0-0-0-0-0~--|
A|--0-0-0-0-0-0-0-0-0-0-0-0-0-0-0~--|
D|--0-0-0-0-0-0-0-0-0-0-0-0-0-0-0~--|

Refão 2: guitarra 2
E|------------------------------------|
B|------------------------------------|
G|------------------------------------|
D|--8-8-8-8-8-8-8-8-8-8-8-8-8-8-------|
A|--8-8-8-8-8-8-8-8-8-8-8-8-8-8-------|
D|--8-8-8-8-8-8-8-8-8-8-8-8-8-8-------|

E|-----------------------------------------------|
B|-----------------------------------------------|
G|-----------------------------------------------|
D|--10-10-10-10-10-10-10-10-10-10-10-10-10-10----|
A|--10-10-10-10-10-10-10-10-10-10-10-10-10-10----|
D|--10-10-10-10-10-10-10-10-10-10-10-10-10-10----|

pm. .  .     .  .     .  .     .  .     .  .
E|--------------------------------------------------|
B|--------------------------------------------------|
G|--------------------------------------------------|
D|--------------------------------------------------|
A|--------15-------12-------13-------12-------12-10-|
D|--0--0-----0--0-----0--0-----0--0-----0--0--------|

  .  .     .  .     .  .     .  .     .  .
----------------------------------------------------|
----------------------------------------------------|
----------------------------------------------------|
----------------------------------------------------|
--------15-------12-------13-------12-------12-13---|
--0--0-----0--0-----0--0-----0--0-----0--0----------|

E|------------------------------------|
B|------------------------------------|
G|------------------------------------|
D|--8-8-8-8-8-8-8-8-8-8-8-8-8-8-------|
A|--8-8-8-8-8-8-8-8-8-8-8-8-8-8-------|
D|--8-8-8-8-8-8-8-8-8-8-8-8-8-8-------|

E|-----------------------------------------------|
B|-----------------------------------------------|
G|-----------------------------------------------|
D|--10-10-10-10-10-10-10-10-10-10-10-10-10-10----|
A|--10-10-10-10-10-10-10-10-10-10-10-10-10-10----|
D|--10-10-10-10-10-10-10-10-10-10-10-10-10-10----|

pm. .  .     .  .     .  .     .  .     .  .
E|--------------------------------------------------|
B|--------------------------------------------------|
G|--------------------------------------------------|
D|--------------------------------------------------|
A|--------15-------12-------13-------12-------12-10-|
D|--0--0-----0--0-----0--0-----0--0-----0--0--------|

  .  .     .  .     .  .     .  .     .  .
----------------------------------------------------|
----------------------------------------------------|
----------------------------------------------------|
----------------------------------------------------|
--------15-------12-------13-------12-------12-13---|
--0--0-----0--0-----0--0-----0--0-----0--0----------|

E|------------------------------------|
B|------------------------------------|
G|------------------------------------|
D|--8-8-8-8-8-8-8-8-8-8-8-8-8-8-------|
A|--8-8-8-8-8-8-8-8-8-8-8-8-8-8-------|
D|--8-8-8-8-8-8-8-8-8-8-8-8-8-8-------|

E|-----------------------------------------------|
B|-----------------------------------------------|
G|-----------------------------------------------|
D|--10-10-10-10-10-10-10-10-10-10-10-10-10-10----|
A|--10-10-10-10-10-10-10-10-10-10-10-10-10-10----|
D|--10-10-10-10-10-10-10-10-10-10-10-10-10-10----|

pm. .  .     .  .     .  .     .  .     .  .
E|--------------------------------------------------|
B|--------------------------------------------------|
G|--------------------------------------------------|
D|--------------------------------------------------|
A|--------15-------12-------13-------12-------12-10-|
D|--0--0-----0--0-----0--0-----0--0-----0--0--------|

  .  .     .  .     .  .     .  .     .  .
----------------------------------------------------|
----------------------------------------------------|
----------------------------------------------------|
----------------------------------------------------|
--------15-------12-------13-------12-------12-13---|
--0--0-----0--0-----0--0-----0--0-----0--0----------|

E|------------------------------------|
B|------------------------------------|
G|------------------------------------|
D|--8-8-8-8-8-8-8-8-8-8-8-8-8-8-------|
A|--8-8-8-8-8-8-8-8-8-8-8-8-8-8-------|
D|--8-8-8-8-8-8-8-8-8-8-8-8-8-8-------|

E|-----------------------------------------------|
B|-----------------------------------------------|
G|-----------------------------------------------|
D|--10-10-10-10-10-10-10-10-10-10-10-10-10-10----|
A|--10-10-10-10-10-10-10-10-10-10-10-10-10-10----|
D|--10-10-10-10-10-10-10-10-10-10-10-10-10-10----|

pm. .  .     .  .     .  .     .  .     .  .
E|--------------------------------------------------|
B|--------------------------------------------------|
G|--------------------------------------------------|
D|--------------------------------------------------|
A|--------15-------12-------13-------12-------12-10-|
D|--0--0-----0--0-----0--0-----0--0-----0--0--------|

  .  .     .  .     .  .     .  .     .  .
----------------------------------------------------|
----------------------------------------------------|
----------------------------------------------------|
----------------------------------------------------|
--------15-------12-------13-------12-------12-13---|
--0--0-----0--0-----0--0-----0--0-----0--0----------|

E|----------------------------------|
B|----------------------------------|
G|----------------------------------|
D|--0-0-0-0-0-0-0-0-0-0-0-0-0-0-0~--|
A|--0-0-0-0-0-0-0-0-0-0-0-0-0-0-0~--|
D|--0-0-0-0-0-0-0-0-0-0-0-0-0-0-0~--|

PARTE 3: guitarra 1 e 2
E|---------------------------------------|
B|---------------------------------------|
G|---------------------------------------|
D|--0-x-0-x-0-0-x--0--0-0-x-0--0-0--0-0--|
A|--0-x-0-x-0-0-x--0--0-0-x-0--0-0--0-0--|
D|--0-x-0-x-0-0-x--0--0-0-x-0--0-0--0-0--|

                 ha.
----------------------------------------------|
-----------------15~~-------------------------|
----------------------------------------------|
--0-x-0-x-0-0-0---------0--0-0-x-0--0-0--0-0--|
--0-x-0-x-0-0-0---------0--0-0-x-0--0-0--0-0--|
--0-x-0-x-0-0-0---------0--0-0-x-0--0-0--0-0--|

RIFF : guitarra 1
E|--------------------------------------------------|
B|--------------------------------------------------|
G|--7-10-9-7-10-9-7-10-9-7-10-9-7-10-9-7------------|
D|--------------------------------------------------|
A|--------------------------------------------------|
D|--------------------------------------------------|

--------------------------------------------------|
--9-12-10-9-12-10-9-12-10-9-12-10-9-12-10-9-------|
--------------------------------------------------|
--------------------------------------------------|
--------------------------------------------------|
--------------------------------------------------|

--------------------------------------------------|
--------------------------------------------------|
--10-14-12-10-14-12-10-14-12-10-14-12-10-14-12-10-|
--------------------------------------------------|
--------------------------------------------------|
--------------------------------------------------|

--------------------------------------------------|
--------------------------------------------------|
--12-15-14-12-15-14-12-15-14-12-15-14-12-15-14-12-|
--------------------------------------------------|
--------------------------------------------------|
--------------------------------------------------|

riff: guitarra 2

E|---------------------------------------|
B|---------------------------------------|
G|---------------------------------------|
D|--0-x-0-x-0-0-x--0--0-0-x-0--0-0--0-0--|
A|--0-x-0-x-0-0-x--0--0-0-x-0--0-0--0-0--|
D|--0-x-0-x-0-0-x--0--0-0-x-0--0-0--0-0--|

E|---------------------------------------|
B|---------------------------------------|
G|---------------------------------------|
D|--0-x-0-x-0-0-x--0--0-0-x-0--0-0--0-0--|
A|--0-x-0-x-0-0-x--0--0-0-x-0--0-0--0-0--|
D|--0-x-0-x-0-0-x--0--0-0-x-0--0-0--0-0--|

SOLO PRE-REFRÃO 3:

E|------17-20-17--------------------------------|
B|--18-----------18-----------------------------|
G|------------------17--------------------------|
D|---------------------20-17-20-17----17--------|
A|---------------------------------20----20-----|
D|----------------------------------------------|

E|------17-18-17--------------------------------|
B|--18-----------18-----------------------------|
G|------------------17--------------------------|
D|---------------------20-17-20-17----17--------|
A|---------------------------------20----20-----|
D|----------------------------------------------|

E|--20--17-----------------------------------------|
B|---------18--------------------------------------|
G|------------17-----------------------------------|
D|---------------20-17-20-17-20-19-17-19-17\-------|
A|-------------------------------------------------|
D|-------------------------------------------------|

solo pre-refrão 3: guitarra 2
E|------------------------------------------|
B|------------------------------------------|
G|------------------------------------------|
D|--7-7-7-7-7-7-7-7--8-5-5-5-5-5-5-5--------|
A|--3-3-3-3-3-3-3-3--5-5-5-5-5-5-5-5--------|
D|--3-3-3-3-3-3-3-3--5-5-5-5-5-5-5-5--------|

E|-------------------------------------------------------|
B|-------------------------------------------------------|
G|-------------------------------------------------------|
D|-10-10-10-10-10-10-10-10-10--10-10-10-10-10-10-10-10---|
A|--7--7--7--7--7--7--7--7--7---8--8--8--8--8--8--8--8---|
D|--7--7--7--7--7--7--7--7--7---8--8--8--8--8--8--8--8---|

pm.     .  .  .  .  .  .  .  .
E|-------------------------------|
B|-------------------------------|
G|-------------------------------|
D|--10---------------------------|
A|--10--10-10-10-10-10-10-10-10--|
D|--10--10-10-10-10-10-10-10-10--|


REFRÃO 3: guitarra 1
E|------------------------------------------|
B|------------------------------------------|
G|------------------------------------------|
D|------------------------------------------|
A|-----8-10-8-12-8----8----8-10-8-12-8----8-|
D|--12-------------12---12-------------12---|

--------------------------------------------|
--------------------------------------------|
--------------------------------------------|
--------------------------------------------|
-----8-10-8-12-8----8----8-10-8-12-8--------|
--12-------------12---12-------------12-----|

pm. .  .     .  .     .  .     .  .     .  .
E|--------------------------------------------------|
B|--------------------------------------------------|
G|--------------------------------------------------|
D|--------------------------------------------------|
A|--------15-------12-------13-------12-------12-10-|
D|--0--0-----0--0-----0--0-----0--0-----0--0--------|

  .  .     .  .     .  .     .  .     .  .
----------------------------------------------------|
----------------------------------------------------|
----------------------------------------------------|
----------------------------------------------------|
--------15-------12-------13-------12-------12-13---|
--0--0-----0--0-----0--0-----0--0-----0--0----------|

E|------------------------------------------|
B|------------------------------------------|
G|------------------------------------------|
D|------------------------------------------|
A|-----8-10-8-12-8----8----8-10-8-12-8----8-|
D|--12-------------12---12-------------12---|

--------------------------------------------|
--------------------------------------------|
--------------------------------------------|
--------------------------------------------|
-----8-10-8-12-8----8----8-10-8-12-8--------|
--12-------------12---12-------------12-----|

pm. .  .     .  .     .  .     .  .     .  .
E|--------------------------------------------------|
B|--------------------------------------------------|
G|--------------------------------------------------|
D|--------------------------------------------------|
A|--------15-------12-------13-------12-------12-10-|
D|--0--0-----0--0-----0--0-----0--0-----0--0--------|

  .  .     .  .     .  .     .  .     .  .
----------------------------------------------------|
----------------------------------------------------|
----------------------------------------------------|
----------------------------------------------------|
--------15-------12-------13-------12-------12-13---|
--0--0-----0--0-----0--0-----0--0-----0--0----------|

E|------------------------------------------------------|
B|------------------------------------------------------|
G|-----10-12-10-14-10----10----10-12-10-14-10----10-----|
D|--12----------------12----12----------------12--------|
A|------------------------------------------------------|
D|------------------------------------------------------|

---------------------------------------------------|
---------------------------------------------------|
-----10-12-10-14-10----10----10-12-10-14-10--------|
--12----------------12----12----------------12-----|
---------------------------------------------------|
---------------------------------------------------|

pm. .  .     .  .     .  .     .  .     .  .
E|--------------------------------------------------|
B|--------------------------------------------------|
G|--------------------------------------------------|
D|--------------------------------------------------|
A|--------15-------12-------13-------12-------12-10-|
D|--0--0-----0--0-----0--0-----0--0-----0--0--------|

  .  .     .  .     .  .     .  .     .  .
----------------------------------------------------|
----------------------------------------------------|
----------------------------------------------------|
----------------------------------------------------|
--------15-------12-------13-------12-------12-13---|
--0--0-----0--0-----0--0-----0--0-----0--0----------|

E|------------------------------------------------------|
B|------------------------------------------------------|
G|-----10-12-10-14-10----10----10-12-10-14-10----10-----|
D|--12----------------12----12----------------12--------|
A|------------------------------------------------------|
D|------------------------------------------------------|

---------------------------------------------------|
---------------------------------------------------|
-----10-12-10-14-10----10----10-12-10-14-10--------|
--12----------------12----12----------------12-----|
---------------------------------------------------|
---------------------------------------------------|

pm. .  .     .  .     .  .     .  .     .  .
E|--------------------------------------------------|
B|--------------------------------------------------|
G|--------------------------------------------------|
D|--------------------------------------------------|
A|--------15-------12-------13-------12-------12-10-|
D|--0--0-----0--0-----0--0-----0--0-----0--0--------|

  .  .     .  .     .  .     .  .     .  .
----------------------------------------------------|
----------------------------------------------------|
----------------------------------------------------|
----------------------------------------------------|
--------15-------12-------13-------12-------12-13---|
--0--0-----0--0-----0--0-----0--0-----0--0----------|

Refão 3: guitarra 2
E|------------------------------------|
B|------------------------------------|
G|------------------------------------|
D|--8-8-8-8-8-8-8-8-8-8-8-8-8-8-------|
A|--8-8-8-8-8-8-8-8-8-8-8-8-8-8-------|
D|--8-8-8-8-8-8-8-8-8-8-8-8-8-8-------|

E|-----------------------------------------------|
B|-----------------------------------------------|
G|-----------------------------------------------|
D|--10-10-10-10-10-10-10-10-10-10-10-10-10-10----|
A|--10-10-10-10-10-10-10-10-10-10-10-10-10-10----|
D|--10-10-10-10-10-10-10-10-10-10-10-10-10-10----|

pm. .  .     .  .     .  .     .  .     .  .
E|--------------------------------------------------|
B|--------------------------------------------------|
G|--------------------------------------------------|
D|--------------------------------------------------|
A|--------15-------12-------13-------12-------12-10-|
D|--0--0-----0--0-----0--0-----0--0-----0--0--------|

  .  .     .  .     .  .     .  .     .  .
----------------------------------------------------|
----------------------------------------------------|
----------------------------------------------------|
----------------------------------------------------|
--------15-------12-------13-------12-------12-13---|
--0--0-----0--0-----0--0-----0--0-----0--0----------|

E|------------------------------------|
B|------------------------------------|
G|------------------------------------|
D|--8-8-8-8-8-8-8-8-8-8-8-8-8-8-------|
A|--8-8-8-8-8-8-8-8-8-8-8-8-8-8-------|
D|--8-8-8-8-8-8-8-8-8-8-8-8-8-8-------|

E|-----------------------------------------------|
B|-----------------------------------------------|
G|-----------------------------------------------|
D|--10-10-10-10-10-10-10-10-10-10-10-10-10-10----|
A|--10-10-10-10-10-10-10-10-10-10-10-10-10-10----|
D|--10-10-10-10-10-10-10-10-10-10-10-10-10-10----|

pm. .  .     .  .     .  .     .  .     .  .
E|--------------------------------------------------|
B|--------------------------------------------------|
G|--------------------------------------------------|
D|--------------------------------------------------|
A|--------15-------12-------13-------12-------12-10-|
D|--0--0-----0--0-----0--0-----0--0-----0--0--------|

  .  .     .  .     .  .     .  .     .  .
----------------------------------------------------|
----------------------------------------------------|
----------------------------------------------------|
----------------------------------------------------|
--------15-------12-------13-------12-------12-13---|
--0--0-----0--0-----0--0-----0--0-----0--0----------|

E|------------------------------------|
B|------------------------------------|
G|------------------------------------|
D|--8-8-8-8-8-8-8-8-8-8-8-8-8-8-------|
A|--8-8-8-8-8-8-8-8-8-8-8-8-8-8-------|
D|--8-8-8-8-8-8-8-8-8-8-8-8-8-8-------|

E|-----------------------------------------------|
B|-----------------------------------------------|
G|-----------------------------------------------|
D|--10-10-10-10-10-10-10-10-10-10-10-10-10-10----|
A|--10-10-10-10-10-10-10-10-10-10-10-10-10-10----|
D|--10-10-10-10-10-10-10-10-10-10-10-10-10-10----|

pm. .  .     .  .     .  .     .  .     .  .
E|--------------------------------------------------|
B|--------------------------------------------------|
G|--------------------------------------------------|
D|--------------------------------------------------|
A|--------15-------12-------13-------12-------12-10-|
D|--0--0-----0--0-----0--0-----0--0-----0--0--------|

  .  .     .  .     .  .     .  .     .  .
----------------------------------------------------|
----------------------------------------------------|
----------------------------------------------------|
----------------------------------------------------|
--------15-------12-------13-------12-------12-13---|
--0--0-----0--0-----0--0-----0--0-----0--0----------|

E|------------------------------------|
B|------------------------------------|
G|------------------------------------|
D|--8-8-8-8-8-8-8-8-8-8-8-8-8-8-------|
A|--8-8-8-8-8-8-8-8-8-8-8-8-8-8-------|
D|--8-8-8-8-8-8-8-8-8-8-8-8-8-8-------|

E|-----------------------------------------------|
B|-----------------------------------------------|
G|-----------------------------------------------|
D|--10-10-10-10-10-10-10-10-10-10-10-10-10-10----|
A|--10-10-10-10-10-10-10-10-10-10-10-10-10-10----|
D|--10-10-10-10-10-10-10-10-10-10-10-10-10-10----|

pm. .  .     .  .     .  .     .  .     .  .
E|--------------------------------------------------|
B|--------------------------------------------------|
G|--------------------------------------------------|
D|--------------------------------------------------|
A|--------15-------12-------13-------12-------12-10-|
D|--0--0-----0--0-----0--0-----0--0-----0--0--------|

  .  .     .  .     .  .     .  .     .  .
----------------------------------------------------|
----------------------------------------------------|
----------------------------------------------------|
----------------------------------------------------|
--------15-------12-------13-------12-------12-13---|
--0--0-----0--0-----0--0-----0--0-----0--0----------|


FINAL: guitarra 1 e 2
                   ha.
E|---------------------------------------------|
B|-----------------15~~------------------------|
G|---------------------------------------------|
D|--0-x-0-x-0-0-0--------0--0-0-x-0--0-0--0-0--|
A|--0-x-0-x-0-0-0--------0--0-0-x-0--0-0--0-0--|
D|--0-x-0-x-0-0-0--------0--0-0-x-0--0-0--0-0--|

                   ha.
E|-----------------15~~------------------------|
B|---------------------------------------------|
G|---------------------------------------------|
D|--0-x-0-x-0-0-0--------0--0-0-x-0--0-0--0-0--|
A|--0-x-0-x-0-0-0--------0--0-0-x-0--0-0--0-0--|
D|--0-x-0-x-0-0-0--------0--0-0-x-0--0-0--0-0--|
Acordes para:
    Composição: Andy SixColaboração e revisão:
    • Eduardo
    • brayan cavani

    0 comentários

      mostrar mais comentários

      Conseguiu tocar?

      12tocaram1ainda não

      Grave um vídeo tocando Knives And Pens e mande pra gente!

      00:00 / 00:00
      outros vídeos desta música
      repetirqualidadeautomática
      Outro vídeos desta música
        00:00 / 00:00
        automática
        OK