Cifra Club

Aprenda

We Stitch These Wounds

Black Veil Brides

Cifra: Principal (violão e guitarra)
Tom: D
GUITARRA 1
-========-

Intro:
E|----------------------------------------------|
B|----------------------------------------------|
G|----------------------------------------------|
D|-------------5-7-4-4-4-------------5-7-4-4-4--|
A|--2-2-2-2-2-------------2-2-2-2-2-------------|
D|--2-2-2-2-2-------------2-2-2-2-2-------------|
      *                     *
E|----------------------------------------------|
B|----------------------------------------------|
G|----------------------------------------------|
D|-------------5-7-4-4-4-------------5-7-4-4-4--|
A|--2-2-2-2-2-------------2-2-2-2-2-------------|
D|--2-2-2-2-2-------------2-2-2-2-2-------------|
      *                     *

Riff Principal:
E|---------------------------------------|
B|---------------------------------------|
G|---------------------------------------|
D|-----5-4---4-5----5-4-0----------------|
A|---------------------------------------|
D|--00-----0-----0-----------------------|
    **     *     *
E|---------------------------------------|
B|---------------------------------------|
G|---------------------------------------|
D|-----5-4---4-5---4h5p4p0h4-------------|
A|---------------------------------------|
D|--00-----0-----0-----------------------|
    **     *     *
E|---------------------------------------|
B|---------------------------------------|
G|---------------------------------------|
D|-----5-4---4-5----5-4-0----------------|
A|---------------------------------------|
D|--00-----0-----0-----------------------|
    **     *     *
E|------------------------------------------|
B|------------------------------------------|
G|------------------------------------------|
D|------------------------------------------|
A|--00-00----(5)----------------------------|
D|--00-00-----------------------------------|
    ** **
E|---------------------------------------|
B|---------------------------------------|
G|---------------------------------------|
D|-----5-4---4-5----5-4-0----------------|
A|---------------------------------------|
D|--00-----0-----0-----------------------|
    **     *     *
E|---------------------------------------|
B|---------------------------------------|
G|---------------------------------------|
D|-----5-4---4-5---4h5p4p0h4-------------|
A|---------------------------------------|
D|--00-----0-----0-----------------------|
    **     *     *
E|---------------------------------------|
B|---------------------------------------|
G|---------------------------------------|
D|-----5-4---4-5----5-4-0----------------|
A|---------------------------------------|
D|--00-----0-----0-----------------------|
    **     *     *
E|---------------------------------------|
B|---------------------------------------|
G|---------------------------------------|
D|-----5-4---4-5---4h5-5h7---------------|
A|---------------------------------------|
D|--00-----0-----0-----------------------|
    **     *     *
E|---------------------------------------|
B|---------------------------------------|
G|---------------------------------------|
D|-----5-4---4-5----5-4-0----------------|
A|---------------------------------------|
D|--00-----0-----0-----------------------|
    **     *     *

E|---------------------------------------|
B|---------------------------------------|
G|---------------------------------------|
D|-----5-4---4-5---4h5p4p0h4-------------|
A|---------------------------------------|
D|--00-----0-----0-----------------------|
    **     *     *
E|---------------------------------------|
B|---------------------------------------|
G|---------------------------------------|
D|-----5-4---4-5----5-4-0----------------|
A|---------------------------------------|
D|--00-----0-----0-----------------------|
    **     *     *
E|---------------------------------------|
B|---------------------------------------|
G|---------------------------------------|
D|-----5-4---4-5---4h5-5h7---------------|
A|---------------------------------------|
D|--00-----0-----0-----------------------|
    **     *     *

Refrão:
E|-------------------------------------------------------|
B|-------------------------------------------------------|
G|-------------------------------------------------------|
D|----------------------9-9-9-7-7-7----------------------|
A|--2-2-2-2--2-5-5-5-5---------------0-0-0-00--0-0-00-0--|
D|--2-2-2-2--2-5-5-5-5---------------0-0-0-00--0-0-00-0--|
      *          *                     *   **    *
E|-------------------------------------------------------|
B|-------------------------------------------------------|
G|-------------------------------------------------------|
D|----------------------9-9-9-7-7-7----------------------|
A|--2-2-2-2--2-5-5-5-5---------------0-0-0-00--0-0-00-0--|
D|--2-2-2-2--2-5-5-5-5---------------0-0-0-00--0-0-00-0--|
      *          *                     *   **    *
E|---------------------------------------------|
B|---------------------------------------------|
G|---------------------------------------------|
D|---------------------------------------------|
A|-------------5-4-0-0-0-------------5-4-0--0--|
D|--7-5-7-5-7-------------5-7-5-7-5------------|

(Riff Principal 3x:
E|---------------------------------------|
B|---------------------------------------|
G|---------------------------------------|
D|-----5-4---4-5----5-4-0----------------|
A|---------------------------------------|
D|--00-----0-----0-----------------------|
    **     *     *
E|---------------------------------------|
B|---------------------------------------|
G|---------------------------------------|
D|-----5-4---4-5---4h5p4p0h4-------------|
A|---------------------------------------|
D|--00-----0-----0-----------------------|
    **     *     *
E|---------------------------------------|
B|---------------------------------------|
G|---------------------------------------|
D|-----5-4---4-5----5-4-0----------------|
A|---------------------------------------|
D|--00-----0-----0-----------------------|
    **     *     *
E|---------------------------------------|
B|---------------------------------------|
G|---------------------------------------|
D|-----5-4---4-5---4h5-5h7---------------|
A|---------------------------------------|
D|--00-----0-----0-----------------------|
    **     *     *
E|---------------------------------------|
B|---------------------------------------|
G|---------------------------------------|
D|-----5-4---4-5----5-4-0----------------|
A|---------------------------------------|
D|--00-----0-----0-----------------------|
    **     *     *
E|---------------------------------------|
B|---------------------------------------|
G|---------------------------------------|
D|-----5-4---4-5---4h5p4p0h4-------------|
A|---------------------------------------|
D|--00-----0-----0-----------------------|
    **     *     *
E|---------------------------------------|
B|---------------------------------------|
G|---------------------------------------|
D|-----5-4---4-5----5-4-0----------------|
A|---------------------------------------|
D|--00-----0-----0-----------------------|
    **     *     *
E|---------------------------------------|
B|---------------------------------------|
G|---------------------------------------|
D|-----5-4---4-5---4h5-5h7---------------|
A|---------------------------------------|
D|--00-----0-----0-----------------------|
    **     *     *
E|---------------------------------------|
B|---------------------------------------|
G|---------------------------------------|
D|-----5-4---4-5----5-4-0----------------|
A|---------------------------------------|
D|--00-----0-----0-----------------------|
    **     *     *
E|---------------------------------------|
B|---------------------------------------|
G|---------------------------------------|
D|-----5-4---4-5---4h5p4p0h4-------------|
A|---------------------------------------|
D|--00-----0-----0-----------------------|
    **     *     *
E|---------------------------------------|
B|---------------------------------------|
G|---------------------------------------|
D|-----5-4---4-5----5-4-0----------------|
A|---------------------------------------|
D|--00-----0-----0-----------------------|
    **     *     *
E|---------------------------------------|
B|---------------------------------------|
G|---------------------------------------|
D|-----5-4---4-5---4h5-5h7---------------|
A|---------------------------------------|
D|--00-----0-----0-----------------------|
    **     *     *

Refrão:
E|-------------------------------------------------------|
B|-------------------------------------------------------|
G|-------------------------------------------------------|
D|----------------------9-9-9-7-7-7----------------------|
A|--2-2-2-2--2-5-5-5-5---------------0-0-0-00--0-0-00-0--|
D|--2-2-2-2--2-5-5-5-5---------------0-0-0-00--0-0-00-0--|
      *          *                     *   **    *
E|-------------------------------------------------------|
B|-------------------------------------------------------|
G|-------------------------------------------------------|
D|----------------------9-9-9-7-7-7----------------------|
A|--2-2-2-2--2-5-5-5-5---------------0-0-0-00--0-0-00-0--|
D|--2-2-2-2--2-5-5-5-5---------------0-0-0-00--0-0-00-0--|
      *          *                     *   **    *
E|-------------------------------------------------------|
B|-------------------------------------------------------|
G|-------------------------------------------------------|
D|----------------------9-9-9-7-7-7----------------------|
A|--2-2-2-2--2-5-5-5-5---------------0-0-0-00--0-0-00-0--|
D|--2-2-2-2--2-5-5-5-5---------------0-0-0-00--0-0-00-0--|
      *          *                     *   **    *
E|-------------------------------------------------------|
B|-------------------------------------------------------|
G|-------------------------------------------------------|
D|----------------------9-9-9-7-7-7----------------------|
A|--2-2-2-2--2-5-5-5-5---------------0-0-0-00--0-0-00-0--|
D|--2-2-2-2--2-5-5-5-5---------------0-0-0-00--0-0-00-0--|
      *          *                     *   **    *

Solo:
E|-------------------------------------------|
B|-------------------------------------------|
G|-------6h7p7-----7h9p7----------9-7p6h7p6--|
D|-------------------------------------------|
A|--2-2--------------------------------------|
D|--2-2--------0-0--------0-0-0-0------------|
               * *        * * * *
E|--------------------------------------------|
B|--------------------------------------------|
G|-------6h7p7-----7h9p7-----------9-7p6h7p6--|
D|--------------------------------------------|
A|--2-2---------------------------------------|
D|--2-2--------0-0--------0-0-0-0-------------|
               * *        * * * *
E|---------------------------------------------|
B|-------7h8p7-----8h10p8----------10-8p7h8p7--|
G|---------------------------------------------|
D|---------------------------------------------|
A|--2-2----------------------------------------|
D|--2-2--------0-0--------0-0-0-0--------------|
               * *        * * * *
E|---------------------------------------------|
B|-------7h8p7-----8h10p8----------10-8p7h8p7--|
G|---------------------------------------------|
D|---------------------------------------------|
A|--2-2----------------------------------------|
D|--2-2--------0-0--------0-0-0-0--------------|
               * *        * * * *

Breakdown:
E|---------------------------------------------------------------------------|
B|---------------------------------------------------------------------------|
G|---------------------------------------------------------------------------|
D|---------------------------------------------------------------------------|
A|--7-7-7-7-7-7-7-7-/9-9-9-9-9-9-9-9-/10-10-10-10-10-10-10-10-12-12-9-10\----|
D|---------------------------------------------------------------------------|

E|---------------------------------------------------------------------------|
B|---------------------------------------------------------------------------|
G|---------------------------------------------------------------------------|
D|---------------------------------------------------------------------------|
A|--7-7-7-7-7-7-7-7-/9-9-9-9-9-9-9-9-/10-10-10-10-10-10-10-10-12-12-9-10\----|
D|---------------------------------------------------------------------------|

E|---------------------------------------------------------------------------|
B|---------------------------------------------------------------------------|
G|---------------------------------------------------------------------------|
D|---------------------------------------------------------------------------|
A|--7-7-7-7-7-7-7-7-/9-9-9-9-9-9-9-9-/10-10-10-10-10-10-10-10-12-12-9-10\----|
D|---------------------------------------------------------------------------|

E|------------------------------------------------------------------------|
B|------------------------------------------------------------------------|
G|------------------------------------------------------------------------|
D|------------------------------------------------------------------------|
A|--7-7-7-7-7-7-7-7-/9-9-9-9-9-9-9-9-/10-10-10-10-10-10-10-10-12-12-9-10--|
D|------------------------------------------------------------------------|

Refrão:
E|-------------------------------------------------------|
B|-------------------------------------------------------|
G|-------------------------------------------------------|
D|----------------------9-9-9-7-7-7----------------------|
A|--2-2-2-2--2-5-5-5-5---------------0-0-0-00--0-0-00-0--|
D|--2-2-2-2--2-5-5-5-5---------------0-0-0-00--0-0-00-0--|
      *          *                     *   **    *
E|-------------------------------------------------------|
B|-------------------------------------------------------|
G|-------------------------------------------------------|
D|----------------------9-9-9-7-7-7----------------------|
A|--2-2-2-2--2-5-5-5-5---------------0-0-0-00--0-0-00-0--|
D|--2-2-2-2--2-5-5-5-5---------------0-0-0-00--0-0-00-0--|
      *          *                     *   **    *
E|-------------------------------------------------------|
B|-------------------------------------------------------|
G|-------------------------------------------------------|
D|----------------------9-9-9-7-7-7----------------------|
A|--2-2-2-2--2-5-5-5-5---------------0-0-0-00--0-0-00-0--|
D|--2-2-2-2--2-5-5-5-5---------------0-0-0-00--0-0-00-0--|
      *          *                     *   **    *
E|-------------------------------------------------------|
B|-------------------------------------------------------|
G|-------------------------------------------------------|
D|----------------------9-9-9-7-7-7----------------------|
A|--2-2-2-2--2-5-5-5-5---------------0-0-0-00--0-0-00-0--|
D|--2-2-2-2--2-5-5-5-5---------------0-0-0-00--0-0-00-0--|
      *          *                     *   **    *

Outro:
E|---------------------------------------|
B|---------------------------------------|
G|---------------------------------------|
D|-----5-4---4-5----5-4-0----------------|
A|---------------------------------------|
D|--00-----0-----0-----------------------|
    **     *     *
E|---------------------------------------|
B|---------------------------------------|
G|---------------------------------------|
D|-----5-4---4-5---4h5p4p0h4-------------|
A|---------------------------------------|
D|--00-----0-----0-----------------------|
    **     *     *
E|---------------------------------------|
B|---------------------------------------|
G|---------------------------------------|
D|-----5-4---4-5----5-4-0----------------|
A|---------------------------------------|
D|--00-----0-----0-----------------------|
    **     *     *
E|---------------------------------------|
B|---------------------------------------|
G|---------------------------------------|
D|-----5-4---4-5---4h5-5h7---------------|
A|---------------------------------------|
D|--00-----0-----0-----------------------|
    **     *     *
E|--------------------------|
B|--------------------------|
G|--------------------------|
D|--------------------------|
A|-22-22-22-22--00-00-00-00-|
D|-22-22-22-22--00-00-00-00-|
   ** ** ** **  ** ** ** **
E|--------------------------|
B|--------------------------|
G|--------------------------|
D|--------------------------|
A|-22-22-22-22--00-00-00-00-|
D|-22-22-22-22--00-00-00-00-|
   ** ** ** **  ** *  ** **
E|---------------------------------------|
B|---------------------------------------|
G|---------------------------------------|
D|-----5-4---5-7---4h5-5h7---------------|
A|---------------------------------------|
D|--00-----0-----0-----------------------|
    **     *     *
E|----------|
B|----------|
G|----------|
D|----------|
A|-22-22----|
D|-22-22----|
   **

GUITARRA 2
-========-

Intro:
E|----------------------------------------------|
B|----------------------------------------------|
G|----------------------------------------------|
D|-------------5-7-4-4-4-------------5-7-4-4-4--|
A|--2-2-2-2-2-------------2-2-2-2-2-------------|
D|--2-2-2-2-2-------------2-2-2-2-2-------------|
      *                     *
E|----------------------------------------------|
B|----------------------------------------------|
G|----------------------------------------------|
D|-------------5-7-4-4-4-------------5-7-4-4-4--|
A|--2-2-2-2-2-------------2-2-2-2-2-------------|
D|--2-2-2-2-2-------------2-2-2-2-2-------------|
      *                     *

Riff Principal:
E|-----|
B|-----|
G|-----|
D|-----|
A|--2--|
D|--2--|

E|------|
B|------|
G|------|
D|------|
A|--00--|
D|--00--|
    **
E|-----|
B|-----|
G|-----|
D|-----|
A|--2--|
D|--2--|

E|---------------|
B|---------------|
G|---------------|
D|---------------|
A|--00-00-(5)----|
D|--00-00--------|
    ** **
E|------------|
B|------------|
G|------------|
D|------------|
A|--22--2222--|
D|--22--2222--|
    **  ****
E|---------------|
B|---------------|
G|---------------|
D|---------------|
A|--00--0000--0--|
D|--00--0000--0--|
    **  ****
E|------------|
B|------------|
G|------------|
D|------------|
A|--22--2222--|
D|--22--2222--|
    **  ****
E|---------------|
B|---------------|
G|---------------|
D|---------------|
A|--00--0000--0--|
D|--00--0000--0--|
    **  ****

E|------------|
B|------------|
G|------------|
D|------------|
A|--22--2222--|
D|--22--2222--|
    **  ****
E|---------------|
B|---------------|
G|---------------|
D|---------------|
A|--00--0000--0--|
D|--00--0000--0--|
    **  ****
E|------------|
B|------------|
G|------------|
D|------------|
A|--22--2222--|
D|--22--2222--|
    **  ****
E|---------------|
B|---------------|
G|---------------|
D|---------------|
A|--00--0000--0--|
D|--00--0000--0--|
    **  ****

Refrão:
E|---------------------------------------------|
B|---------------------------------------------|
G|---------------------------------------------|
D|---------------------------------------------|
A|--2-2-2-2--2-5-5-5-5--5--0-0-0-00--0-0-00-0--|
D|--2-2-2-2--2-5-5-5-5--5--0-0-0-00--0-0-00-0--|
      *        *             *   **    *
E|---------------------------------------------|
B|---------------------------------------------|
G|---------------------------------------------|
D|---------------------------------------------|
A|--2-2-2-2--2-5-5-5-5--5--0-0-0-00--0-0-00-0--|
D|--2-2-2-2--2-5-5-5-5--5--0-0-0-00--0-0-00-0--|
      *          *           *   **    *
E|---------------------|
B|---------------------|
G|---------------------|
D|---------------------|
A|-7-5-7-5-7-10-9-5----|
D|-7-5-7-5-7-10-9-5----|

E|---------------------|
B|---------------------|
G|---------------------|
D|---------------------|
A|-7-5-7-5-7-10-9-5----|
D|-7-5-7-5-7-10-9-5----|

Riff Principal:
E|------------|
B|------------|
G|------------|
D|------------|
A|--22--2222--|
D|--22--2222--|
    **  ****
E|---------------|
B|---------------|
G|---------------|
D|---------------|
A|--00--0000--0--|
D|--00--0000--0--|
    **  ****
E|------------|
B|------------|
G|------------|
D|------------|
A|--22--2222--|
D|--22--2222--|
    **  ****
E|---------------|
B|---------------|
G|---------------|
D|---------------|
A|--00--0000--0--|
D|--00--0000--0--|
    **  ****
E|------------|
B|------------|
G|------------|
D|------------|
A|--22--2222--|
D|--22--2222--|
    **  ****
E|---------------|
B|---------------|
G|---------------|
D|---------------|
A|--00--0000--0--|
D|--00--0000--0--|
    **  ****
E|------------|
B|------------|
G|------------|
D|------------|
A|--22--2222--|
D|--22--2222--|
    **  ****
E|---------------|
B|---------------|
G|---------------|
D|---------------|
A|--00--0000--0--|
D|--00--0000--0--|
    **  ****
E|------------|
B|------------|
G|------------|
D|------------|
A|--22--2222--|
D|--22--2222--|
    **  ****
E|---------------|
B|---------------|
G|---------------|
D|---------------|
A|--00--0000--0--|
D|--00--0000--0--|
    **  ****
E|------------|
B|------------|
G|------------|
D|------------|
A|--22--2222--|
D|--22--2222--|
    **  ****
E|---------------|
B|---------------|
G|---------------|
D|---------------|
A|--00--0000--0--|
D|--00--0000--0--|
    **  ****

E|---------------------------------------------|
B|---------------------------------------------|
G|---------------------------------------------|
D|---------------------------------------------|
A|--2-2-2-2--2-5-5-5-5--5--0-0-0-00--0-0-00-0--|
D|--2-2-2-2--2-5-5-5-5--5--0-0-0-00--0-0-00-0--|
      *          *           *   **    *
E|---------------------------------------------|
B|---------------------------------------------|
G|---------------------------------------------|
D|---------------------------------------------|
A|--2-2-2-2--2-5-5-5-5--5--0-0-0-00--0-0-00-0--|
D|--2-2-2-2--2-5-5-5-5--5--0-0-0-00--0-0-00-0--|
      *          *           *   **    *
E|---------------------------------------------|
B|---------------------------------------------|
G|---------------------------------------------|
D|---------------------------------------------|
A|--2-2-2-2--2-5-5-5-5--5--0-0-0-00--0-0-00-0--|
D|--2-2-2-2--2-5-5-5-5--5--0-0-0-00--0-0-00-0--|
      *          *           *   **    *
E|---------------------------------------------|
B|---------------------------------------------|
G|---------------------------------------------|
D|---------------------------------------------|
A|--2-2-2-2--2-5-5-5-5--5--0-0-0-00--0-0-00-0--|
D|--2-2-2-2--2-5-5-5-5--5--0-0-0-00--0-0-00-0--|
      *          *           *   **    *

Solo:
E|-------------------------------------------|
B|-------------------------------------------|
G|-------6h7p7-----7h9p7----------9-7p6h7p6--|
D|-------------------------------------------|
A|--2-2--------------------------------------|
D|--2-2--------0-0--------0-0-0-0------------|
               * *        * * * *
E|--------------------------------------------|
B|--------------------------------------------|
G|-------6h7p7-----7h9p7-----------9-7p6h7p6--|
D|--------------------------------------------|
A|--2-2---------------------------------------|
D|--2-2--------0-0--------0-0-0-0-------------|
               * *        * * * *
E|---------------------------------------------|
B|-------7h8p7-----8h10p8----------10-8p7h8p7--|
G|---------------------------------------------|
D|---------------------------------------------|
A|--2-2----------------------------------------|
D|--2-2--------0-0--------0-0-0-0--------------|
               * *        * * * *
E|---------------------------------------------|
B|-------7h8p7-----8h10p8----------10-8p7h8p7--|
G|---------------------------------------------|
D|---------------------------------------------|
A|--2-2----------------------------------------|
D|--2-2--------0-0--------0-0-0-0--------------|
               * *        * * * *

Breakdown:
E|-------------------------------------------------------------|
B|-------------------------------------------------------------|
G|-------------------------------------------------------------|
D|-------------------------------------------------------------|
A|--2-2-2-2-2-2-2-2-/4-4-4-4-4-4-4-4-5-5-5-5-5-5-5-5-7-7-4-5\--|
D|--2-2-2-2-2-2-2-2-/4-4-4-4-4-4-4-4-5-5-5-5-5-5-5-5-7-7-4-5\--|
    * * * * * * * *  * * * * * * * * * * * * * * * * * * * *
E|-------------------------------------------------------------|
B|-------------------------------------------------------------|
G|-------------------------------------------------------------|
D|-------------------------------------------------------------|
A|--2-2-2-2-2-2-2-2-/4-4-4-4-4-4-4-4-5-5-5-5-5-5-5-5-7-7-4-5\--|
D|--2-2-2-2-2-2-2-2-/4-4-4-4-4-4-4-4-5-5-5-5-5-5-5-5-7-7-4-5\--|
    * * * * * * * *  * * * * * * * * * * * * * * * * * * * *
E|-------------------------------------------------------------|
B|-------------------------------------------------------------|
G|-------------------------------------------------------------|
D|-------------------------------------------------------------|
A|--2-2-2-2-2-2-2-2-/4-4-4-4-4-4-4-4-5-5-5-5-5-5-5-5-7-7-4-5\--|
D|--2-2-2-2-2-2-2-2-/4-4-4-4-4-4-4-4-5-5-5-5-5-5-5-5-7-7-4-5\--|
    * * * * * * * *  * * * * * * * * * * * * * * * * * * * *
E|-------------------------------------------------------------|
B|-------------------------------------------------------------|
G|-------------------------------------------------------------|
D|-------------------------------------------------------------|
A|--2-2-2-2-2-2-2-2-/4-4-4-4-4-4-4-4-5-5-5-5-5-5-5-5-7-7-4-5\--|
D|--2-2-2-2-2-2-2-2-/4-4-4-4-4-4-4-4-5-5-5-5-5-5-5-5-7-7-4-5\--|
    * * * * * * * *  * * * * * * * * * * * * * * * * * * * *

Refrão:
E|---------------------------------------------|
B|---------------------------------------------|
G|---------------------------------------------|
D|---------------------------------------------|
A|--2-2-2-2--2-5-5-5-5--5--0-0-0-00--0-0-00-0--|
D|--2-2-2-2--2-5-5-5-5--5--0-0-0-00--0-0-00-0--|
      *          *           *   **    *
E|---------------------------------------------|
B|---------------------------------------------|
G|---------------------------------------------|
D|---------------------------------------------|
A|--2-2-2-2--2-5-5-5-5--5--0-0-0-00--0-0-00-0--|
D|--2-2-2-2--2-5-5-5-5--5--0-0-0-00--0-0-00-0--|
      *          *           *   **    *
E|---------------------------------------------|
B|---------------------------------------------|
G|---------------------------------------------|
D|---------------------------------------------|
A|--2-2-2-2--2-5-5-5-5--5--0-0-0-00--0-0-00-0--|
D|--2-2-2-2--2-5-5-5-5--5--0-0-0-00--0-0-00-0--|
      *          *           *   **    *
E|---------------------------------------------|
B|---------------------------------------------|
G|---------------------------------------------|
D|---------------------------------------------|
A|--2-2-2-2--2-5-5-5-5--5--0-0-0-00--0-0-00-0--|
D|--2-2-2-2--2-5-5-5-5--5--0-0-0-00--0-0-00-0--|
      *          *           *   **    *

Outro:
E|--------------------------|
B|--------------------------|
G|--------------------------|
D|--------------------------|
A|-22-22-22-22--00-00-00-00-|
D|-22-22-22-22--00-00-00-00-|
   ** ** ** **  ** ** ** **
E|--------------------------|
B|--------------------------|
G|--------------------------|
D|--------------------------|
A|-22-22-22-22--00-00-00-00-|
D|-22-22-22-22--00-00-00-00-|
   ** ** ** **  ** ** ** **
E|--------------------------|
B|--------------------------|
G|--------------------------|
D|--------------------------|
A|-22-22-22-22--00-00-00-00-|
D|-22-22-22-22--00-00-00-00-|
   ** ** ** **  ** ** ** **
E|--------------------------|
B|--------------------------|
G|--------------------------|
D|--------------------------|
A|-22-22-22-22--00-00-00-00-|
D|-22-22-22-22--00-00-00-00-|
   ** ** ** **  ** ** ** **
E|----------|
B|----------|
G|----------|
D|----------|
A|-22-22----|
D|-22-22----|
   **
Composição de Andy Six
Colaboração e revisão:
  • Gregory Manchini
4.634 exibições
    • ½ Tom
    • A
    • Bb
    • B
    • C
    • Db
    • D
    • Eb
    • E
    • F
    • F#
    • G
    • Ab
  • Adicionar à lista

    0 comentários

    Mostrar mais comentários

    Conseguiu tocar?

    4 Tocaram 0 Ainda não

    Grave um vídeo tocando We Stitch These Wounds e mande pra gente!

    00:00 / 00:00
    outros vídeos desta música
    repetir qualidade Automático
    Outros vídeos desta música
    00:00 / 00:00
    Automático

    Cifra Club Pro

    Aproveite o Cifra Club com benefícios exclusivos e sem anúncios
    Cifra Club Pro
    Aproveite o Cifra Club com benefícios exclusivos e sem anúncios
    OK