Cifra Club

The Script From My Requiem

Blind Guardian

Tab de baixo: Principal
Tune Down

F#||------------------------|------------------------|------------------------|
C#||------------------------|------------------------|------------------------|
G#||----0--0--0----0--0--0--|----0--0--0----0--0--0--|----0--0--0----0--0--0--|
D#||------------------------|------------------------|------------------------|
                                                                           
------------------------|------------------------|------------------------|
------------------------|------------------------|------------------------|
----0--0--0----0--0--0--|----0--0--0----0--0--0--|----0--0--0----0--0--0--|
------------------------|------------------------|------------------------|
                                                                   
------------------------|------------------------|------------------------|
------------------------|------------------------|------------------------|
----0--0--0----0--0--0--|----0--0--0----0--0--0--|----0--0--0----0--0--0--|
------------------------|------------------------|------------------------|
                                                                           
------------------------|------------------------|------------------------|
------------------------|------------------------|------------------------|
----0--0--0----0--0--0--|----0--0--0----0--0--0--|----0--0--0----0--0--0--|
------------------------|------------------------|------------------------|
                                                                      
------------------------|------------------------|------------------------|
------------------------|------------------------|------------------------|
----0--0--0----0--0--0--|----0--0--0----0--0--0--|----0--0--0----0--0--0--|
------------------------|------------------------|------------------------|
                                                                     
------------------------|------------------------|------------------------|
------------------------|------------------------|------------------------|
----0--0--0----0--0--0--|----0--0--0----0--0--0--|----0--0--0----0--0--0--|
------------------------|------------------------|------------------------|
                                                                           
------------------------|------------------------|------------------------|
------------------------|------------------------|------------------------|
----0--0--0----0--0--0--|----0--0--0----0--0--0--|----0--0--0----0--0--0--|
------------------------|------------------------|------------------------|
                                                   
------------------------|------------------------||
------------------------|------------------------||
----0--0--0----0--0--0--|----0--0--0----0--0--0--||
------------------------|------------------------||
00:00 / 00:00
Outros vídeos desta música
Repetir
Outros vídeos desta música
Compositor não encontrado.
Colaboração e revisão:
  • Taino Vieira
259 exibições

0 comentários

Ver todos os comentários

Conseguiu tocar?

0 Tocaram 0 Ainda não

Grave um vídeo tocando The Script From My Requiem e nos envie!

Entre para oCifra Club PRO

Tenha acesso a benefícios exclusivos no App e no Site

  • Chega de anúncios

  • Prioridade de compra em lançamentos

  • Mais recursos no app do Afinador

  • Atendimento Prioritário

  • Descontos nos produtos Cifra Club

  • Ajude a produzir mais conteúdo

00:00 / 00:00

Cifra Club Pro

Aproveite o Cifra Club com benefícios exclusivos e sem anúncios
Cifra Club Pro
Aproveite o Cifra Club com benefícios exclusivos e sem anúncios
OK