Cifra Club

War Pigs

Cake

Tab de baixo: Principal
Hey. So I did this tab mostly by ear adn somewhat of what i knew from Sabbath's version.

Verse's ( In all actuality I think you play this the whole song but that's boring so i
the bridges and stuff just for you all) 0:00
G]----------------------------|
D]----------------------------|
A]1-33-1-33-1-33-1-33-----1---|
E]--------------------1-3---3-|

except this part this is the Part in one of the verses where it quits playing for about
lines. Then it does this (2:15)
G]----------------------------------|
D]----------------------------------|
A]----------------------------------|
E]6-8------------6-8------------6-8-|

Here are the bridges and stuff that the guitars play (2:03)
G]-------------------|
D]-------------------|
A]-------------------|
E]6-8-----11-10-9--8-|

Come back in with the verse at 2:26

During the trumpet solo: (3:14)
G]-------------------------------|
D]-------------------------------|
A]3-1-------6--------------------|
E]-3-------8-8 the verse at 3:34-|

And if you must show off for your friends i've tabbed out what i believe to be the 
solo: 3:22

G]5--5-7-8-7-8-7-7--------5--5-7-8-10-10-7---|
D]-----------------8-5-5h8-----------------8-|
A]-------------------------------------------|
E]-------------------------------------------|

G]5--5-7-8-7-8-7-7--------5--5-7-8-10-10-7-10-12~-|
D]-----------------8-5-5h8------------------------|
A]------------------------------------------------|
E]------------------------------------------------|

Outro (3:51)
G]---
D]---
A]---
E]6-8

Any questions or comments would be appreciated. *

Peace
Bassman0719
exibições 2.124

0 comentários

mostrar mais comentários

Conseguiu tocar?

0 tocaram 0 ainda não

Grave um vídeo tocando War Pigs e mande pra gente!

00:00 / 00:00
outros vídeos desta música
repetir qualidade Automático
Outros vídeos desta música
00:00 / 00:00
Automático
OK