Cifra Club

Siempre que hago algo

Camila Moreno

Cifra: Principal (violão e guitarra)
tom: Dm
E|-----------------------------------------------------|
B|---------6-------8---6-----------------5----6---5----|
G|-----7---------7---7-----------------6---6----6------|
D|--0--------------------0-------0------------------0--|
A|-----------------------------------------------------|
E|-----------------------------------------------------|
   Siempre que hago algo,        lo hago para que me

E|-----------------------------------------------------|
B|-------3------5---3----------------2--------3---2----|
G|----4------4----4---------------3------3------3------|
D|-0------------------0-------0---------------------0--|
A|-----------------------------------------------------|
E|-----------------------------------------------------|
   digas que te gusto         que no vay a olvidar


Ven porque yo tengo    eso que te hace re-
cordar que no teni     que pelearle al viento

(interludio. Aqui se tocan algunas cuerdas al mismo tiempo,
de forma mas o menos libre)

Siempre que yo quiero  alcanzarte no pue-
do porque no queri     que se mueva el suelo

Ayer me dijiste        que sintonizamos
en la misma señal      nos complementamos

Y al final eri tu      lo que me estremece
no puedo evitarlo      tiemblo al solo verte...

(interludio con rasgueo en vez de arpegio)
(el estribillo se rasgue con mas fuerza)
Deja de mentirme, aaaaaahhhhhhhh
Deja de mentirme, aaaaaahhhhhhhh

(interludio con arpegio mas libre)

(se vuelve al arpegio original tranquilo)
Lo que va quedando     en las largas noches
queda con su canto     calma mis dolores
00:00 / 00:00
Outros vídeos desta música
Repetir
Outros vídeos desta música
Compositor não encontrado.
6 exibições
    • ½ Tom
    • Am
    • Bbm
    • Bm
    • Cm
    • C#m
    • Dm
    • Ebm
    • Em
    • Fm
    • F#m
    • Gm
    • G#m
  • Adicionar à lista

    0 comentários

    Ver todos os comentários

    Conseguiu tocar?

    0 Tocaram 0 Ainda não

    Grave um vídeo tocando Siempre que hago algo e nos envie!

    Entre para oCifra Club PRO

    Tenha acesso a benefícios exclusivos no App e no Site

    • Chega de anúncios

    • Prioridade de compra em lançamentos

    • Mais recursos no app do Afinador

    • Atendimento Prioritário

    • Descontos nos produtos Cifra Club

    • Ajude a produzir mais conteúdo

    00:00 / 00:00

    Cifra Club Pro

    Aproveite o Cifra Club com benefícios exclusivos e sem anúncios
    Cifra Club Pro
    Aproveite o Cifra Club com benefícios exclusivos e sem anúncios
    OK