Cifra Club

Não Olhe Pra Trás

Capital Inicial

Tab de baixo: Principal
exibições 24.812
G||------------------------|-----------------------|
D||------------------------|-----------------------|
A||------------------------|-----------------------|
E||---3--------3-3--3---3--|--5--------5-5--5---5--|

-----------------------|------------------------||-----------------------|
-----------------------|------------------------||-----------------------|
--3--------3-3--3---3--|--3--------3-3--3---3---||-----------------------|
-----------------------|------------------------||---3--------3--3-------|
 
----------------------|----------------------|-----------------------||
----------------------|----------------------|-----------------------||
----------------------|--2--------2--2-------|-----------------------||
--5--------5--5-------|----------------------|--5--------5--5--------||
      
------------------------||-----------------------|----------------------|
------------------------||-----------------------|----------------------|
------------------------||---3--------3--3--3----|----------------------|
--5------5--5--5--5--7--||-----------------------|--3--------3--3--3----|
  
----------------------|-------------------------||------------------------|
----------------------|-------------------------||------------------------|
----------------------|-------------------------||------------------------|
--5--------5--5--5----|--5------5--5--5--5--7---||--5----5----5----5--5-5-|
    
|-----------------------|----------------------|----------------------|
|-----------------------|----------------------|----------------------|
|-----------------------|----------------------|--3--------3--3-------|
|---3--------3--3-------|--5--------5--5-------|----------------------|
   
---------------------------||-----------------------||------------------------|
----------------------3-5--||-----------5--3--------||------------------------|
------------------3-5------||--3--------------5--3--||------------------------|
--3--------3-5-5-----------||-----------------------||---3--------3-3--3---3--|
     
-----------------------|-----------------------|------------------------||
-----------------------|-----------------------|------------------------||
-----------------------|--3--------3-3--3---3--|--3--------3-3--3---3---||
--5--------5-5--5---5--|-----------------------|------------------------||
     
-----------------------|----------------------|----------------------|
-----------------------|----------------------|----------------------|
-----------------------|----------------------|--2--------2--2-------|
---3--------3--3-------|--5--------5--5-------|----------------------|
       
-----------------------||------------------------||-----------------------|
-----------------------||------------------------||-----------------------|
-----------------------||------------------------||---3--------3--3--3----|
--5--------5--5--------||--5------5--5--5--5--7--||-----------------------|
      
----------------------|----------------------|-------------------------||
----------------------|----------------------|-------------------------||
----------------------|----------------------|-------------------------||
--3--------3--3--3----|--5--------5--5--5----|--5------5--5--5--5--7---||
    
------------------------||-----------------------|----------------------|
------------------------||-----------------------|----------------------|
------------------------||-----------------------|----------------------|
--5----5----5----5--5-5-||---3--------3--3-------|--5--------5--5-------|
    
----------------------|---------------------------||-----------------------|
----------------------|----------------------3-5--||-----------5--3--------|
--3--------3--3-------|------------------3-5------||--3--------------5--3--|
----------------------|--3--------3-5-5-----------||-----------------------|
   
--------------------------|-------------------------|--------------------------|
--------------------------|-------------------------|--------------------------|
--------------------------|--3--3--3----------------|--------------------------|
--3--3--3--3--5--5--5--5--|-----------3----3--3--3--|--3--3--3--3--5--5--5--5--|
    
-------------------------|--------------------------|-------------------------|
-------------------------|--------------------------|-------------------------|
--3--3--3----------------|--------------------------|--3--3--3----------------|
-----------3----3--3--3--|--3--3--3--3--5--5--5--5--|-----------3----3--3--3--|
       
--------------------------|-------------------------||-----------------------|
--------------------------|-------------------------||-----------------------|
--------------------------|--3--3--3----------0--2--||---3--------3--3--3----|
--3--3--3--3--5--5--5--5--|-----------3-------------||-----------------------|
      
----------------------|----------------------|-------------------------||
----------------------|----------------------|-------------------------||
----------------------|----------------------|-------------------------||
--3--------3--3--3----|--5--------5--5--5----|--5------5--5--5--5--7---||
 
------------------------||-----------------------|----------------------|
------------------------||-----------------------|----------------------|
------------------------||-----------------------|----------------------|
--5----5----5----5--5-5-||---3--------3--3----L--|--5--------5--5-------|
    
----------------------|---------------------------||-----------------------|
----------------------|----------------------3-5--||-----------5--3--------|
--3--------3--3-------|------------------3-5------||--3--------------5--3--|
----------------------|--3--------3-5-5-----------||-----------------------|

|-----------------------|----------------------|----------------------|
|*----------------------|----------------------|----------------------|
|*----------------------|----------------------|--3--------3--3-------|
|---3--------3--3-------|--5--------5--5-------|----------------------|

---------------------------||-----------------------||------------------------|
----------------------3-5--||-----------5--3--------||------------------------|
------------------3-5------||--3--------------5--3--||------------------------|
--3--------3-5-5-----------||-----------------------||---3--------3-3--3---3--|
    
-----------------------|-----------------------|------------------------||
-----------------------|-----------------------|------------------------||
-----------------------|--3--------3-3--3---3--|--3--------3-3--3---3---||
--5--------5-5--5---5--|-----------------------|------------------------||

--------------------------|--------------------||
--------------------------|--------------------||
--2--2--x-----------------|--------------------||
-----------3~~------------|--------------------||
Composição: Alvin L. / Dinho Ouro PretoColaboração e revisão:
  • Edson Flores

0 comentários

    mostrar mais comentários

    Conseguiu tocar?

    3tocaram0ainda não

    Grave um vídeo tocando Não Olhe Pra Trás e mande pra gente!

    00:00 / 00:00
    outros vídeos desta música
    repetirqualidadeautomática
    Outro vídeos desta música
      00:00 / 00:00
      automática
      OK