Cifra Club

La Cumparsita

Carlos Gardel

Cifra: Principal (violão e guitarra)
Tom: G
E|--8-7-5-4--|-10-7---|-0-1-0--0-(0)-|-12--8------|---5-4-5--4-5-4-5--------5-4-5--4-5-4-5--6-7-12-11-12--10-8-7--------|
G|-10-9-6-5--|-12-9-9-|-------4------|-13-10-10---|-3-6-5-6--5-6-5-6---6-5--5-4-5--4-5-4-5--8-9-----------------10-9-10-|
B|-----------|------9-|--------------|--------9---|-2------------------7-5----------------------------------------------|
D|-----------|--------|--------------|------------|---------------------------------------------------------------------|
A|-----------|--------|--------------|------------|---------------------------------------------------------------------|
E|-----------|--------|--------------|------------|---------------------------------------------------------------------|

E|-1-0-----------|--------------5-5-3-3-1-1-0-0----7-7-5-5-4-4-1-1-0-0---------------------------------0-|
B|----3-1-0------|--------------5-5-3-3-1-1-0-0--3-9-9-6-6-5-5-3-3-1-1--0-3-1-0-------------0-1-0-1-3----|
G|---------2-1-2-|--4-5--4-5-4-------------------4-------------------------------2-1--2-1-2--------------|
D|---------------|-7----7-----7--------------------------------------------------------------------------|
A|---------------|---------------------------------------------------------------------------------------|
E|---------------|---------------------------------------------------------------------------------------|


E|-5-7-8--5-7-8-7-5--5-5-3-3-1-1-0-----|-----5-5-4-5------5-5-4-5----7-4--------|---5-4-5-7--8--7-5---1-0-1-3-5-1-0-|
B|-------------------5-5-3-3-1-1-0---3-|---6-6-6-5-6----5-5-5-4-5--5----5-------|--5----------------3---------------|
G|-----------------------------------2-|-7-7----------5-5----------------7-4----|-5----------------2----------------|
D|-------------------------------------|-7------------7---------------------6-7-|-----------------------------------|
A|-------------------------------------|----------------------------------------|-----------------------------------|
E|-------------------------------------|----------------------------------------|-----------------------------------|


E|------------------------------------------------------------------|
B|-5-6--5-5---3-3-6-5---3-5-3-3-1-1-5-3---1-3-1-1-0-0-3-1---0-------|
G|-5-5--5-5---4-4-7-5---4-5-4-4-2-2-5-4---2-4-2-2-1-1-4-2---1-2-1-2-|
D|------------------------------------------------------------2-2-2-|
A|------------------------------------------------------------------|
E|------------------------------------------------------------------|
exibições 1.165
Acordes para:

    0 comentários

    mostrar mais comentários

    Conseguiu tocar?

    0 tocaram 0 ainda não

    Grave um vídeo tocando La Cumparsita e mande pra gente!

    00:00 / 00:00
    outros vídeos desta música
    repetir qualidade Automático
    Outros vídeos desta música
    00:00 / 00:00
    Automático
    OK