Cifra Club

A Grande Volta

Charlie Brown Jr.

Cifra: Principal (violão e guitarra)
Selo Cifra Club: esta cifra foi revisada para atender aos critérios oficiais da nossa Equipe de Qualidade.
tom: F#
[Intro] D#m C# Bb

E|-----------------------------------------------------------------|
B|-----------------------------------------------------------------|
G|----------------X--6/8--8-----88---------------------------------|
D|----------------X--6/8--8-----88---------------------------------|
A|----------------X--4/6--6-----66---------------------------------|
E|-----------------------------------------------------------------|

Riff 1
E|-----------------------------------------------------------------|
B|-----------------------------------------------------------------|
G|-----------------------------------------------------------------|
D|-----------------------------------------------------------------|
A|---999-888-666-------666-------888------6-5-4----------4---------|
E|----------------9-6-------9-6------9-6----------6-4-6-----6-4-6--|

(Riff 1)

                D#m
Olha só quem voltou, movimento de valor
                     C#
Que mostrou porque sabia
                     Bb
Se ligou que agora é dia
                    D#m
Que é o sol, que ele brilha
Vou juntar toda família
                      G#m                    
Junta os mano e a gataria festa boa vai rolar
         D#m
A grande volta que serviu pra dar dar
Um gás agora sim
C#                       Bb
Skaton na veia e ibiraboys é
Coisa assim
      D#m
Grande volta que serviu pra dar um gás
Agora sim
C#                       Bb
Skaton na veia e ibiraboys é coisa assim

D#m                   F#
O mel no labio que resseca a boca
D#m                  F#
O mel na boca que te deixa louca

D#m    F#
Que te deixa louca
Outros vídeos desta música
    79.823 exibições
      • ½ Tom
      • A
      • Bb
      • B
      • C
      • Db
      • D
      • Eb
      • E
      • F
      • F#
      • G
      • Ab
    • Adicionar à lista

    Afinação da cifra

    Afinador online

      0 comentários

      Ver todos os comentários

      Entre para o Cifra Club PRO

      Tenha acesso a benefícios exclusivos no App e no Site

      • Chega de anúncios

      • Badges exclusivas

      • Mais recursos no app do Afinador

      • Atendimento Prioritário

      • Aumente seu limite de lista

      • Ajude a produzir mais conteúdo

      Cifra Club Pro

      Aproveite o Cifra Club com benefícios exclusivos e sem anúncios
      Cifra Club Pro
      Aproveite o Cifra Club com benefícios exclusivos e sem anúncios
      Ops (: Contenido disponible sólo en portugués.
      OK