Cifra Club

Aprenda

Selva Branca

Chiclete Com Banana

Cifra: Principal (violão e guitarra)
tom: A
[Intro] Gm Eb Gm D

Intro Teclado

    Gm                   Eb    Gm                Dm
E|---3-5-6-5-3-----------3~~---3-5-6-5-3-------3------|
B|-------------6--6--3--------------------6--6---3~---|
G|----------------------------------------------------|
D|----------------------------------------------------|
A|----------------------------------------------------|
E|----------------------------------------------------|

Gm           Eb
Pra te espiar
         Cm           F
Eu dou a volta no seu muro 
       F#º       (Gm F Gm)
Eu pulo seu muro 

Gm               Eb
Pra te encontrar 
         Cm           F
Eu dou a volta no seu mundo 
       F#º        (Gm)
Eu mudo seu mundo 

Riff1: (Gm)
E|----------------|
B|----------------|
G|--------7-5~~~--|
D|--5-7-8---------|
A|----------------|
E|----------------|

Eb                               Cm
Faço o que quiser de brincadeira 
                           Gm  (Gm) 
Carrossel no céu, Selva branca

Riff2:(Gm) 
E|----------------|
B|----------------|
G|--------7-5~~~--|
D|--5-7-8---------|
A|----------------|
E|----------------|
 
Cm
E nascer em cada estrela a novidade 
Gm
Que o muro do seu mundo era saudade 
Eb                               (Eb - Dm - Cm)
Porque não dizer, posso derreter 
Cm                                      D
Moranguinho no copinho esperando por você 

Refrão:
  
Gm                    Dm
Quanto mais sorvete quero seu calor 
Cm                      Gm  F
Quanto mais desejo de amor
Riff3: 
    Gm      F
E|------------------|
B|------------------|
G|----3--3----2--2--|
D|--5--5----3--3----|
A|------------------|
E|------------------|
Gm                    Dm
Quanto mais desejo, quero seu calor 
Cm                       Gm  F  Gm
Quanto mais sorvete de amor
Riff3: 
    Gm      F
E|------------------|
B|------------------|
G|----3--3----2--2--|
D|--5--5----3--3----|
A|------------------|
E|------------------|
Composição de Carlinhos Brown
Colaboração e revisão:
144.660 exibições
    • ½ Tom
    • A
    • Bb
    • B
    • C
    • Db
    • D
    • Eb
    • E
    • F
    • F#
    • G
    • Ab
  • Adicionar à lista

    0 comentários

    Ver todos os comentários

    Conseguiu tocar?

    13 Tocaram 2 Ainda não

    Grave um vídeo tocando Selva Branca e nos envie!

    00:00 / 00:00
    Outros vídeos desta música
    Repetir Qualidade Automático
    Outros vídeos desta música
    00:00 / 00:00
    Automático

    Cifra Club Pro

    Aproveite o Cifra Club com benefícios exclusivos e sem anúncios
    Cifra Club Pro
    Aproveite o Cifra Club com benefícios exclusivos e sem anúncios
    OK