Cifra Club

Aprenda

Quero Chiclete

Chiclete Com Banana

Cifra: Principal (violão e guitarra)
tom: A
(Alexandre Peixe / Beto Garrido)
Introdução: (A G A G) 


    A         G
Chiclete, Chiclete 
          A
Quero chiclete
    G
Chiclete
          A
Quero Chiclete
    G
Chiclete
          A
Quero chiclete     (2x)


     E           D            A
Chiclete pra grudar no seu ouvido
     E          D          A
Chiclete pra tocar no coração
     E       D              A
Chiclete na boca pra mim é vício
     B7                   E      (caidinha..)   E D# D
Chiclete pra ficar amarradão
                            A
Chiclete pra colar no seu juízo
     E          D            A
Chiclete pra colar nossa paixão
     E          D          A
Chiclete sem banana é prejuízo
     B7                      E7
Chiclete pra galera é chicletão 

          A7
Não é lambada, não é
         D
Não é merengue, não é 
         Bm7
Sabe qual é, qual é, qual é
    E7
Chiclete com Banana   (2x)


:Refrão: 
:
:  A D  E 
:Chiclete... Oba!! Oba!! (4x)

Solinho de Bell Marques, tirado por mim:
e|------5------5-----------10----------10--------7-------7-------7--------------|-
B|-----5------5---------10----------10---------7-------7-------9----------------|-
G|-6-6----6-6-----11-11-------11-11--------7-7-----7-7-----9-9------9-7-6-------|-
D|------------------------------------------------------------------------9-----|-
A|------------------------------------------------------------------------------|-
E|------------------------------------------------------------------------------|-

-|------5------5-----------10----------10--------7---------7--7-7-7---|-
-|-----5------5---------10----------10---------7---------7----9-9-9---|-
-|-6-6----6-6-----11-11-------11-11--------7-7-------7-7------9-9-9---|-
-|--------------------------------------------------------------------|-
-|--------------------------------------------------------------------|-
-|--------------------------------------------------------------------|-

(E)
  A D  E 
Chiclete... Oba!! Oba!! (4x)
Composição de Alexandre Peixe / Beto Garrido
97.697 exibições
    • ½ Tom
    • A
    • Bb
    • B
    • C
    • Db
    • D
    • Eb
    • E
    • F
    • F#
    • G
    • Ab
  • Adicionar à lista

    0 comentários

    Ver todos os comentários

    Conseguiu tocar?

    6 Tocaram 0 Ainda não

    Grave um vídeo tocando Quero Chiclete e nos envie!

    00:00 / 00:00
    Outros vídeos desta música
    Repetir Qualidade Automático
    Outros vídeos desta música
    00:00 / 00:00
    Automático

    Cifra Club Pro

    Aproveite o Cifra Club com benefícios exclusivos e sem anúncios
    Cifra Club Pro
    Aproveite o Cifra Club com benefícios exclusivos e sem anúncios
    OK