Cifra Club

Aprenda

Menina Me Dá o Seu Amor

Chiclete Com Banana

Cifra: Principal (violão e guitarra)
tom: G
(intro) G   D7   G   D   C   G

E|-----------------------------------------|----------------------------------------|
B|-----------------------------------------|------3-3------------------3-3----------|
G|-----------------------------------------|--2-4-------2-4--------2-4-------2-4----|
D|----2-5-5--0-2----------2-5-5--0-2-------|----------------0-0------------------0-0|
A|--5-------------------5------------------|----------------------------------------|
E|---------------3-3-----------------3-3---|----------------------------------------|

|------------------------------------------|----------------------------------------|
|------------------------------------------|------3-3-------------------------------|
|------------------------------------------|--2-4-------2-4-------------------------|
|-----2-5-5--0-2----------2-5-5--0-2-------|----------------0------0h2-0------------|
|---5-------------------5------------------|-----------------------------3-2--------|
|----------------3-3-----------------3-3---|---------------------------------3-3-3--|

          G
Posso sentir
                      D
Chego a tocar na sua mão
                            Am  C
Cantar, cantar a beleza da vida
           D           G
Me faz querer seu coração

           G
Por que será
                                D
Que a noite é tão linda como você
                            Am  C
Olhar o mar e o mistério da lua
          D          G
E deixar tudo acontecer

G
Daqui do alto
        D
Eu te beijo, eu te beijo
Daqui do alto
         G
Eu te desejo, eu te desejo
Daqui do alto
       D
Eu te quero, eu te quero
Daqui do alto
        G              G7
Me desespero, me desespero

                   C             D
Menina me dá seu amor, ai, ai, ai
       C           G
Madrugada já clareou
     D7    G        D7    G
Clareou oh oh, clareou oh oh

( G )

           D7
Parece que tudo termina
       G
Em carinho
            D7
Você é tão linda, e eu
        G
Tão sozinho
            D7
A onda te trouxe
           G
Sereia do mar
             D7
Princesa do céu
           G
Quero namorar
Composição de Bell Marques / Wadinho Marques
Colaboração e revisão:
  • Siloé Junior
  • Julio Cesar
70.159 exibições
    • ½ Tom
    • A
    • Bb
    • B
    • C
    • Db
    • D
    • Eb
    • E
    • F
    • F#
    • G
    • Ab
  • Adicionar à lista

    0 comentários

    Ver todos os comentários

    Conseguiu tocar?

    7 Tocaram 0 Ainda não

    Grave um vídeo tocando Menina Me Dá o Seu Amor e nos envie!

    00:00 / 00:00
    Outros vídeos desta música
    Repetir Qualidade Automático
    Outros vídeos desta música
    00:00 / 00:00
    Automático

    Cifra Club Pro

    Aproveite o Cifra Club com benefícios exclusivos e sem anúncios
    Cifra Club Pro
    Aproveite o Cifra Club com benefícios exclusivos e sem anúncios
    OK