Cifra Club

Girassol

Cidade Negra

Tab de baixo: Principal
Intro(X2)

G:--------------------------------------|
D:--------------------------------------|
A:-7-7-------7-7------9---9-------------|
E:-----7-7-------7-7--------------------|

G:--------------------------------------|
D:--------------------------------------|
A:-11-11-------11-11--------9-9-9-------|
E:-------11-11-------11-11--------9-7---|

G:--------------------------------------|
D:--------------------------------------|
A:-7-7-------7-7------9---9-------------|
E:-----7-7-------7-7--------------------|

G:--------------------------------------|
D:-------------------------9-9----------|
A:-11-11-------11-11----------9-11-9-11-|
E:-------11-11-------11-11--------------|



Verso "A"
G:---------------------------------------------------------|
D:---------------------------------------------------------|
A:-7-7-----7---9-9-----9---11-11-------11---9---9-9--------|
E:-----7-7---------9-9-----------11-11--------------9-9-7--|

Verso "B"
G:---------------------------------------------------------|
D:----------------------------------------9--9--------9----|
A:-7-7-----7---9-9-----9---11-11-------11-------7-9-7------|
E:-----7-7---------9-9-----------11-11---------------------|

Verso "A" abab 
Verso "A"
Verso "B"
Verso "B"


Pré-refrão e Refrão
G:---------------------------------------------------------|
D:---------------------------------------------------------|
A:-----------------------------3-3----3-3----3-3----3-3----|
E:-5-5--0-5-5--0-5-5--0-5-5--3------3------3------3--------|


G:---------------------------------------------------------|
D:---5-5----5-5----5-5----5-5------------------------------|
A:-5------5------5------5--------5-5----5-5----5-5----5-5--|
E:-----------------------------5------5------5------5------|

*Final do Refrão
G:--------------------------------------|
D:--------------------------------------|
A:---5-5----5-5-------------------------|
E:-5------5------5-5--------------------|

Intro

Verso "A"
Verso "B"
Verso "A"
Verso "B"

Pré-refrão e Refrão

Intro

Verso "A"
Verso "B"

A múzika acaba num sonoro "Mi" ...OOOHhhhhh!!!!!!

_______________________________________________________
Contribuição: Vinicius Langer Greter ***ViNi...(vns66@bol.com.br)
Composição de Bino Farias / Da Gama / Lazão / Pedro Luis / Toni Garrido
19.238 exibições

0 comentários

Ver todos os comentários
00:00 / 00:00
Outros vídeos desta música
Repetir Qualidade Automático
Outros vídeos desta música
00:00 / 00:00
Automático

Cifra Club Pro

Aproveite o Cifra Club com benefícios exclusivos e sem anúncios
Cifra Club Pro
Aproveite o Cifra Club com benefícios exclusivos e sem anúncios
OK