Cifra Club

Girassol

Cidade Negra

Cifra: Ao-vivo (violão e guitarra)
tom: E
Intro: E F#m G#m F#m
       E F#m G#m B

Guitarra 02: solo intro (2X)

E|----------4------------------4---7/9-7~~-------|
B|--5---5-7--5---------5---5-7---5---------------|
G|---------- ---6-4------------------------------|
D|-----------------------------------------------|
A|-----------------------------------------------|
E|-----------------------------------------------|

      E              F#m
Tchu ru ru ru ru ru ru ru
      G#m         F#m
Tchu ru ru ru ru ru

      E              F#m
Tchu ru ru ru ru ru ru ru
      G#m         B
Tchu ru ru ru ru ru


E      F#m          G#m
  A favor da comunidade
       F#m             E
Que espera o bloco passar
         F#m         G#m
Ninguém fica na solidão
   B              E
Embarca com suas dores
     F#m            G#m  F#m
Prá longe do seu lugar

E      F#m          G#m
  A favor da comunidade
       F#m             E
Que espera o bloco passar
         F#m         G#m
Ninguém fica na solidão
    B             E
O Bloco vai te levar
         F#m         G#m  B
Ninguém fica na solidão

A9
A verdade prova que
   C
O tempo é o senhor
             G
Dos dois destinos
             D
Dos dois destinos

 A9
Já que pra ser homem
         C
Tem que ter a grandeza
         G            D
De um menino de um menino

          A9
No coração de quem faz a guerra
      C              G
Nascerá uma flor amarela
         D
Como um girassol
         A9
Como um girassol
         C
Como um girassol
   G         D   A9
Amarelo! amarelo

Guitarra 02: solo (2X)

E|----------4------------------4---7/9-7~~-------|
B|--5---5-7--5---------5---5-7---5---------------|
G|---------- ---6-4------------------------------|
D|-----------------------------------------------|
A|-----------------------------------------------|
E|-----------------------------------------------|

      E              F#m
Tchu ru ru ru ru ru ru ru
      G#m         F#m
Tchu ru ru ru ru ru

      E              F#m
Tchu ru ru ru ru ru ru ru
      G#m         B
Tchu ru ru ru ru ru


E       F#m       G#m
  Todo dia, toda hora
      F#m          E
Na batida da evolução
        F#m       G#m
A harmonia do passista
          B        E
Vai encantar a avenida
          F#m         G#m
E todo o povo vai sorrir
    F#m     E
Sorrir, sorrir
          F#m         G#m   B
E todo o povo vai sorrir

A9
A verdade prova que
   C
O tempo é o senhor
             G
Dos dois destinos
             D
Dos dois destinos

 A9
Já que pra ser homem
         C
Tem que ter a grandeza
         G            D
De um menino de um menino

          A9
No coração de quem faz a guerra
      C              G
Nascerá uma flor amarela
         D
Como um girassol
         A9
Como um girassol
         C
Como um girassol
   G         D
Amarelo! Amarelo
         A9
Como um girassol
         C
Como um girassol
   G         D   A9
Amarelo! Amarelo

Guitarra 02: solo intro (4X)

E|----------4------------------4---7/9-7~~-------|
B|--5---5-7--5---------5---5-7---5---------------|
G|---------- ---6-4------------------------------|
D|-----------------------------------------------|
A|-----------------------------------------------|
E|-----------------------------------------------|

      E              F#m
Tchu ru ru ru ru ru ru ru
      G#m         F#m
Tchu ru ru ru ru ru

      E              F#m
Tchu ru ru ru ru ru ru ru
      G#m         B
Tchu ru ru ru ru ru


      E              F#m
Tchu ru ru ru ru ru ru ru
      G#m         F#m
Tchu ru ru ru ru ru

      E              F#m
Tchu ru ru ru ru ru ru ru
      G#m         B  E
Tchu ru ru ru ru ru

By Gilson B. Feitosa
Composição de Bino Farias / Da Gama / Lazão / Pedro Luis / Toni Garrido
Colaboração e revisão:
  • Gilson Feitosa
5.803 exibições
    • ½ Tom
    • A
    • Bb
    • B
    • C
    • Db
    • D
    • Eb
    • E
    • F
    • F#
    • G
    • Ab
  • Adicionar à lista

    0 comentários

    Ver todos os comentários
    00:00 / 00:00
    Outros vídeos desta música
    Repetir Qualidade Automático
    Outros vídeos desta música
    00:00 / 00:00
    Automático

    Cifra Club Pro

    Aproveite o Cifra Club com benefícios exclusivos e sem anúncios
    Cifra Club Pro
    Aproveite o Cifra Club com benefícios exclusivos e sem anúncios
    OK