Cifra Club

Aprenda

10 Solos Fáceis Na Guitarra

Cifra Club

Cifra: Principal (violão e guitarra)
Tom: A
[I Wanna Be Sedated]

E|-----------------------------------------------------|
B|-5-5-5-5-5-5-5-5-5-5-5-5-5-5-5-5---------------------|
G|-----------------------------------------------------|
D|-----------------------------------------------------|
A|-----------------------------------------------------|
E|-----------------------------------------------------|

[Come As You Are]

E|-----------------------------------------------------|
B|-----------------------------------------------------|
G|-6~--9--11\--6~--9--11\--6~--9--11--11b13----11--9---|
D|-----------------------------------------------------|
A|-----------------------------------------------------|
E|-----------------------------------------------------|

[Será]

E|-0-------------------------0-------------------------|
B|----3--1-0--------------------3--1-0----1------------|
G|------------2--0-2---------------------------0-------|
D|----------------------3------------------------------|
A|-----------------------------------------------------|
E|-----------------------------------------------------|

[Que País É Esse]

E|---7----7----7-----7-----5----3----3----3-----3-----5|
B|-5----5----5-----5---5-3----5----5----5-----5---5-3--|
G|-----------------------------------------------------|
D|-----------------------------------------------------|
A|-----------------------------------------------------|
E|-----------------------------------------------------|

[Wonderful Tonight]

E|-----------------------------------------------------|
B|-10b12r10-8-10~---10b12r10-8------10b12r10-8-10~-----|
G|-----------------------------9~----------------------|
D|-----------------------------------------------------|
A|-----------------------------------------------------|
E|-----------------------------------------------------|

E|-----------------------------------------------------|
B|-10b12r10-8-10~---10b12r10-8------10b12r10-8---------|
G|-----------------------------9~----------------------|
D|-----------------------------------------------------|
A|-----------------------------------------------------|
E|-----------------------------------------------------|

E|------------8--10h12--10~----------------------------|
B|-10--10/12-------------------------------------------|
G|-----------------------------------------------------|
D|-----------------------------------------------------|
A|-----------------------------------------------------|
E|-----------------------------------------------------|

[O Sol]

E|------------------0h2-0------------------------------|
B|--------------0h2----------0-2-3----3--2--0----------|
G|-----2h4-2-----------------------------------2-------|
D|-2h4-------------------------------------------------|
A|-----------------------------------------------------|
E|-----------------------------------------------------|

[Vertigo]

E|-12-12-12---12-12-12---------------------------------|
B|-10-10-10---9--9--9----9-9-9----7-7-7----------------|
G|-----------------------9-9-9----9-9-9----------------|
D|-----------------------------------------------------|
A|-----------------------------------------------------|
E|-----------------------------------------------------|

E|-12-12-12---12-12-12---------------------------------|
B|-10-10-10---9--9--9----9-9-9-9--7-7-7----------------|
G|-----------------------9-9-9-9--9-9-9----------------|
D|-----------------------------------------------------|
A|-----------------------------------------------------|
E|-----------------------------------------------------|

[Fortunate Son]

E|-----------------------------------------------------|
B|----8------6------5------3---------------------------|
G|-----------------------------------------------------|
D|-/9-----/7-----/5-----/3-----------------------------|
A|-----------------------------1b----------------------|
E|---------------------------------3-------------------|

[What's Up?]

E|-----------------------------------------------------|
B|-----------------------------------------------------|
G|-/9-9---9---9----------------------2----------2---2~-|
D|--------------7----7-7\4--4----2h4----4--2--4---4----|
A|-----------------------------------------------------|
E|-----------------------------------------------------|

E|-----------------------------------------------------|
B|-------5b--------------------------------------------|
G|---7---5b--------------------------------------------|
D|-7---7-----7-----------------------------------------|
A|-----------------------------------------------------|
E|-----------------------------------------------------|

[Smells Like Teen Spirit]

(Parte 1 - 2x)

E|-----------------------------------------------------|
B|-------6\-------4--4b6r4--2--1-----------------------|
G|-5--8------1~----------------------------------------|
D|-----------------------------------------------------|
A|-----------------------------------------------------|
E|-----------------------------------------------------|

E|-----------------------------------------------------|
B|-2--1------------------------------------------------|
G|-------3--1~---3--3b5r3----1--0----------------------|
D|-----------------------------------------------------|
A|-----------------------------------------------------|
E|-----------------------------------------------------|

(Parte 2 - 4x)

E|-----------------------------------------------------|
B|-----------------------------------------------------|
G|-1--0----1--0----1--0----1p0--0----------------------|
D|---------------------------------3~------------------|
A|-----------------------------------------------------|
E|-----------------------------------------------------|
Colaboração e revisão:
  • Getúlio Vasconcelos
1.215 exibições
    • ½ Tom
    • A
    • Bb
    • B
    • C
    • Db
    • D
    • Eb
    • E
    • F
    • F#
    • G
    • Ab
  • Adicionar à lista

    0 comentários

    Mostrar mais comentários

    Conseguiu tocar?

    0 Tocaram 0 Ainda não

    Grave um vídeo tocando 10 Solos Fáceis Na Guitarra e mande pra gente!

    Relacionados

    00:00 / 00:00
    outros vídeos desta música
    repetir qualidade Automático
    Outros vídeos desta música
    00:00 / 00:00
    Automático
    Capítulos
    • Fortunate Son
    • I Wanna Be Sedated
    • Come As You Are
    • Será
    • Que País É Esse
    • Wonderful Tonight
    • O Sol
    • Vertigo
    • What's Up
    • Smells Like Teen Spirit
    • Encerramento
    OK