Cifra Club

Aprenda

Os Mais Famosos Riffs de Guitarra - Parte 2

Cifra Club

Cifra: Principal (violão e guitarra)
Tom: A
Rock N' Roll All Night:
E|------------------------------------------------------|
B|-7h8---8---7---8p7-8p7--2----9--9-10p9-10p9--2--------|
G|-7-----7---7---7---7----2----9--9-9----9-----2--------|
D|-7h9---9---7---9p7-9p7--2----9--9-11p9-11p9--2--------|
A|------------------------0--------------------0--------|
E|------------------------------------------------------|

E|------------------------------------------------------|
B|-9--9-10p9-10p9--2------------------------------------|
G|-9--9-9----9-----2------------------------------------|
D|-9--9-11p9-11p9--2------------------------------------|
A|-----------------0------------------------------------|
E|------------------------------------------------------|


The Trooper:
E|------------------------------------------------------|
B|------------------------------------------------------|
G|------------------------------------------------------|   (4x)
D|------------------------------------------5-----------|
A|-7--7--7p5----5--5--5p3----3--3--3p2----5---5---------|
E|-----------7------------5------------3----------------|


Black Dog:
E|------------------------------------------------------|
B|------------------------------------------------------|
G|-----------5b6----7-9-5h7p5-----5b6-------------------|
D|---5-6-7-------7------------7-7-----7--5-7-7----------|
A|-7-------7-----------------------------------5-7-3-5--|
E|------------------------------------------------------|

E|------------------------------------------------------|
B|------------------------------------------------------|
G|------------------------------------------------------|
D|-2-2--------------------------------------------------|
A|-0-0--------------------------------------------------|
E|------------------------------------------------------|


Born To Be Wild:
E|------------------------------------------------------|
B|------------------------------------------------------|
G|-9--x-9-9--x-9-x-9-x-9--------------------------------|
D|-9--x-9-9--x-9-x-9-x-9-11p9-12p9----------------------|
A|-7--x-7-7--x-7-x-7-x-7-7----7-------------------------|
E|------------------------------------------------------|


Carry On My Wayward Son:
E|------------------------------------------------------|
B|------------------------------------------------------|
G|------------------------------------------------------|
D|----------------------------5-------------------------|
A|-------3~---------5~---5/7-----7-5-3--5-------5-------|
E|-5-3-5------5-3-5------------------------3~-----2~----|


Sweet Child O' Mine:
E|-------------15----14----------------15----14---------|
B|----15----------------------15------------------------|
G|-------14-12----14----14-------14-12----14----14------|
D|-12----------------------12---------------------------|
A|------------------------------------------------------|
E|------------------------------------------------------|

E|-------------15----14----------------15----14---------|
B|----15----------------------15------------------------|
G|-------14-12----14----14-------14-12----14----14------|
D|-14----------------------14---------------------------|
A|------------------------------------------------------|
E|------------------------------------------------------|

E|-------------15----14----------------15----14---------|
B|----15----------------------15------------------------|
G|-12----14-12----14----14-12----14-12----14----14------|
D|------------------------------------------------------|
A|------------------------------------------------------|
E|------------------------------------------------------|

E|-------------15----14----------------15----14---------|
B|----15----------------------15------------------------|
G|-------14-12----14----14-------14-12----14----14------|
D|-12----------------------12---------------------------|
A|------------------------------------------------------|
E|------------------------------------------------------|


Sweet Home Alabama:
E|------------------------------------------------------|
B|--------3-------------3-------------3-----------------|
G|----------2-------------0-----------0--0--------------|
D|-0-x-0-------0-------------0--------0--0--------------|
A|---------------3-x-3----------------------------------|
E|-----------------------------3-x-3--------------------|

E|------------------------------------------------------|
B|------------------------------------------------------|
G|-------------2p0--------------------------------------|
D|-----0-2p0--------------------------------------------|
A|-0h2-------2------------------------------------------|
E|------------------------------------------------------|

E|------------------------------------------------------|
B|--------3-------------3-------------3-----------------|
G|----------2-------------0-----------0--0--------------|
D|-0-x-0-------0-------------0--------0--0--------------|
A|---------------3-x-3----------------------------------|
E|-----------------------------3-x-3--------------------|

E|------------------------------------------------------|
B|------------------------------------------------------|
G|-2p0--0-4p0--0-5b7------------------------------------|
D|------------------------------------------------------|
A|------------------------------------------------------|
E|------------------------------------------------------|


I Love Rock N' Roll:
E|------------------------------------------------------|
B|------------------------------------------------------|
G|----------------2-2---4-4---------------------2-2-----|
D|-2-2---2-2------2-2---4-4------2-2---2-2------2-2-----|
A|-2-2---2-2------0-0---2-2------2-2---2-2------0-0-----|
E|-0-0---0-0---3b-------------3b-0-0---0-0---3b---------|

E|------------------------------------------------------|
B|-----------------15b17r15-12--------------------------|
G|-4----------------------------14-12~------------------|
D|-4-0-2-2---2-2----------------------------------------|
A|-2-0-2-2---2-2----------------------------------------|
E|-----0-0---0-0----------------------------------------|


Love Me Two Times:
E|------------------------------------------------------|
B|------------------------------------------------------|
G|--------------------0h1p0h1p0...------0h1p0h1p0...----|
D|---0---2----0-2---------------------------------------|
A|-2---2----2-------------------------------------------|
E|----------------0-0---------------0-0---------------0-|


Tom Sawyer:
E|------------------------------------------------------|
B|------------------------------------------------------|
G|------------------------------------------------------|
D|-7-4-6---4------7--4-6--------------------------------|
A|-------7---5~----------7-5----------------------------|
E|---------------------------7--------------------------|


Rock You Like a Hurricane:
E|------------------------------------------------------|
B|------------------------------------------------------|
G|-9-9-9--------------5--7-7----------------------------|
D|-9-9-9----5-5--7-7--5--7-7----------------------------|
A|-7-7-7----5-5--7-7--3--5-5----------------------------|
E|----------3-3--5-5------------------------------------|


Voodoo Child:
E|------------------------------------------------------|
B|------------------------------------------------------|
G|-7h9~---7-----7b--------------------7h9~---7------7h9~|
D|----------7h9-------5b--5--7p5---------------9--------|
A|-------------------------------7----------------------|
E|------------------------------------------------------|


Layla:
E|------------------------------------------------------|
B|------------------------------------------------------|
G|------------------------------------------------------|
D|----------------7--5--3----3---5----5-5-7-------------|
A|-----5-8p5---5--5--3--1----0-5-3----0-3-5-------------|
E|-5h8-------8-----------------3------------------------|
Colaboração e revisão:
  • Caroline Leroy
39.690 exibições
    • ½ Tom
    • A
    • Bb
    • B
    • C
    • Db
    • D
    • Eb
    • E
    • F
    • F#
    • G
    • Ab
  • Adicionar à lista

    0 comentários

    Mostrar mais comentários

    Conseguiu tocar?

    12 Tocaram 3 Ainda não

    Grave um vídeo tocando Os Mais Famosos Riffs de Guitarra - Parte 2 e mande pra gente!

    Relacionados

    00:00 / 00:00
    outros vídeos desta música
    repetir qualidade Automático
    Outros vídeos desta música
    00:00 / 00:00
    Automático
    Capítulos
    • Dicas Iniciais
    • Rock N' Roll All Night - Kiss
    • The Trooper - Iron Mainden
    • Black Dog - Led Zeppelin
    • Born To Be Wild - Steppenwolf
    • Carry On My Wayward Son - Kansas
    • Sweet Child O' Mine - Guns N' Roses
    • Sweet Home Alabama - Lynyrd Synyrd
    • I Love Rock N' Roll - Joan Jett
    • Love Me Two Times - The Doors
    • Tom Sawyer - Rush
    • Rock You Like a Hurricane - Scorpions
    • Voodoo Child - Jimi Hendrix
    • Layla - Eric Clapton
    • Encerramento
    • Ficha técnica

    Cifra Club Pro

    Aproveite o Cifra Club com benefícios exclusivos e sem anúncios
    7 dias grátis
    Cifra Club Pro
    Aproveite o Cifra Club com benefícios exclusivos e sem anúncios
    7 dias grátis
    OK