Cifra Club

Aprenda

Lick 1

Cifra Club

Cifra: Principal (violão e guitarra)
tom: Am
E|-------5--------------------------------------------|
B|-----5---5-8p5---5----------------------------------|
G|-7b9-----------7---7b9r7p5---7---5~-----------------|
D|---------------------------7---7--------------------|
A|----------------------------------------------------|
E|----------------------------------------------------|

E|----------------------------------------------------|
B|----------------------------------------------------|
G|----------------------------------------------------|
D|-7p5---5--------------------------------------------|
A|-----7---7-6-5\3---3--------------------------------|
E|-----------------5---5~-----------------------------|
Colaboração e revisão:
  • Getúlio Vasconcelos
1.394 exibições
    • ½ Tom
    • Am
    • Bbm
    • Bm
    • Cm
    • C#m
    • Dm
    • Ebm
    • Em
    • Fm
    • F#m
    • Gm
    • G#m
  • Adicionar à lista

    0 comentários

    Ver todos os comentários

    Conseguiu tocar?

    2 Tocaram 2 Ainda não

    Grave um vídeo tocando Lick 1 e nos envie!

    Relacionados

    00:00 / 00:00
    outros vídeos desta música
    repetir qualidade Automático
    Outros vídeos desta música
    00:00 / 00:00
    Automático
    Capítulos
    • Lick
    • Exemplo
    • Ficha Técnica

    Cifra Club Pro

    Aproveite o Cifra Club com benefícios exclusivos e sem anúncios
    Cifra Club Pro
    Aproveite o Cifra Club com benefícios exclusivos e sem anúncios
    OK