Cifra Club

Cromatismos

Cifra Club

Cifra: Principal (violão e guitarra)
tom: A
Riff 1 - Sem Cromatismo

E|------------------------8-10--------------|
B|-------------------8-10-------------------|
G|--------------5-7-------------------------|
D|----------5-7-----------------------------|
A|-----3-5----------------------------------|
E|-3-5--------------------------------------|


Riff 1 - Com Cromatismo

E|----------------------------8-9-10--------|
B|-----------------------8-10---------------|
G|----------------5-6-7---------------------|
D|------------5-7---------------------------|
A|-----3-4-5--------------------------------|
E|-3-5--------------------------------------|

Lick Blues

E|------------------------------------------|
B|-8-5--------------------------------------|
G|-----8-7-5--------------------------------|
D|-----------7~-----------------------------|
A|------------------------------------------|
E|------------------------------------------|

Riff 2 - Sem Cromatismo

E|------------------------------------------|
B|------------------------------------------|
G|---------5-7/9~---------------------------|
D|-----5-7----------------------------------|
A|-3-5--------------------------------------|
E|------------------------------------------|

Riff 2 - Com Cromatismo

E|------------------------------------------|
B|------------------------------------------|
G|---------5-7-8-9~-------------------------|
D|-----5-7----------------------------------|
A|-3-5--------------------------------------|
E|------------------------------------------|


[Solo]

Lick 1

E|-----------------5-7-8-9------------------|
B|-------------5-7--------------------------|
G|-----4-5-6-7------------------------------|
D|-4-7--------------------------------------|
A|------------------------------------------|
E|------------------------------------------|

E|--------------------7-8-9-10-8b9r8--------|
B|------7-8-9-10---------------------10~----|
G|---------------7-10-----------------------|
D|-7-10-------------------------------------|
A|------------------------------------------|
E|------------------------------------------|

Lick 2

E|------------------------------------------|
B|-------------10-12-13-14---15h17-13b14----|
G|---------------------------------------10~|
D|-----7h9/11--11-12-13-14------------------|
A|-7h9--------------------------------------|
E|------------------------------------------|

E|------------------------------------------|
B|------------------------------------------|
G|-5h7p5------------------------------------|
D|-------7--5h7p5------------7~-------------|
A|----------------7---5-4-3-----------------|
E|------------------------------------------|

Lick 3

E|----17----------------------------20------|
B|-15-------17----------------20-17---------|
G|-------14-------17----19-17---------------|
D|-------------14----17---------------------|
A|------------------------------------------|
E|------------------------------------------|

E|-19-18-17---------------------------------|
B|----------20b~----------------------------|
G|------------------------------------------|
D|------------------------------------------|
A|------------------------------------------|
E|------------------------------------------|

Lick 4

E|----------------------------------15-17-20|
B|----------------------13-15-16-17---------|
G|----------------12-14---------------------|
D|-------12-13-14---------------------------|
A|-12-15------------------------------------|
E|------------------------------------------|
00:00 / 00:00
Outros vídeos desta música
Repetir
Outros vídeos desta música
Composição de Maurício Fernndes
Colaboração e revisão:
  • Lucas Kappaun
276 exibições
    • ½ Tom
    • A
    • Bb
    • B
    • C
    • Db
    • D
    • Eb
    • E
    • F
    • F#
    • G
    • Ab
  • Adicionar à lista

    0 comentários

    Ver todos os comentários

    Conseguiu tocar?

    0 Tocaram 0 Ainda não

    Grave um vídeo tocando Cromatismos e nos envie!

    Relacionados

    Entre para oCifra Club PRO

    Tenha acesso a benefícios exclusivos no App e no Site

    • Chega de anúncios

    • Prioridade de compra em lançamentos

    • Mais recursos no app do Afinador

    • Atendimento Prioritário

    • Descontos nos produtos Cifra Club

    • Ajude a produzir mais conteúdo

    00:00 / 00:00

    Cifra Club Pro

    Aproveite o Cifra Club com benefícios exclusivos e sem anúncios
    Cifra Club Pro
    Aproveite o Cifra Club com benefícios exclusivos e sem anúncios
    OK