Cifra Club

Lick 20

Cifra Club

Cifra: Principal (violão e guitarra)
tom: Bm
E|----------------------------------------------------|
B|--------------------------------------------7-------|
G|----------------------------7-----9p7---7-9---9-7---|
D|------------7-----9p7---7-9---9-7-----9-------------|
A|-9p7----7-9---9-7-----9-----------------------------|
E|-----10---------------------------------------------|

E|-------------7----7-9b10----------------------------|
B|-10p7---7-10---10-----------------------------------|
G|------9---------------------------------------------|
D|----------------------------------------------------|
A|----------------------------------------------------|
E|----------------------------------------------------|

00:00 / 00:00
Outros vídeos desta música
Repetir
Outros vídeos desta música
Compositor não encontrado.
Colaboração e revisão:
  • Getúlio Vasconcelos
118 exibições
    • ½ Tom
    • Am
    • Bbm
    • Bm
    • Cm
    • C#m
    • Dm
    • Ebm
    • Em
    • Fm
    • F#m
    • Gm
    • G#m
  • Adicionar à lista

    0 comentários

    Ver todos os comentários

    Entre para oCifra Club PRO

    Tenha acesso a benefícios exclusivos no App e no Site

    • Chega de anúncios

    • Prioridade de compra em lançamentos

    • Mais recursos no app do Afinador

    • Atendimento Prioritário

    • Descontos nos produtos Cifra Club

    • Ajude a produzir mais conteúdo

    00:00 / 00:00

    Cifra Club Pro

    Aproveite o Cifra Club com benefícios exclusivos e sem anúncios
    Cifra Club Pro
    Aproveite o Cifra Club com benefícios exclusivos e sem anúncios
    OK