Cifra Club

Aprenda

Os Mais Famosos Riffs de Guitarra - Parte 1

Cifra Club

Cifra: Principal (violão e guitarra)
Tom: A
Enter Sandman:
E|------------------------------------------------------|
B|------------------------------------------------------|
G|------------------------------------------------------|
D|--------5---------------------------------------------|
A|------7-----------------------------------------------|
E|-0--------6-5-----------------------------------------|


Sunshine OF Your Love:
E|------------------------------------------------------|
B|------------------------------------------------------|
G|------------------------------------------------------|
D|-12-12-10-12------------------------------------------|
A|--------------12--11--10-----8------------------------|
E|--------------------------10----10-10-----------------|


Satisfaction:
E|------------------------------------------------------|
B|------------------------------------------------------|
G|------------------------------------------------------|
D|------------------------------------------------------|
A|-2--2----2-4-5----5-5p4--4p2--------------------------|
E|------------------------------------------------------|


Bad To The Bone:
E|------------------------------------------------------|
B|------------------------------------------------------|
G|-0-0-5-0--3/--0---------------------------------------|
D|-0-0-5-0--3/--0---------------------------------------|
A|------------------------------------------------------|
E|------------------------------------------------------|


Back In Black:
E|------------------------3-0---------------------------|
B|------3-3-3-----------------3-0-----------------------|
G|------2-2-2----2-2-2------------2b~~p0----------------|
D|-2----0-0-0----2-2-2----------------------------------|
A|-2-------------0-0-0----------------------------------|
E|-0----------------------------------------------------|

E|------------------------------------------------------|
B|------3-3-3-------------------------------------------|
G|------2-2-2----2-2-2----------------------------------|
D|-2----0-0-0----2-2-2----------------------------------|
A|-2-------------0-0-0----2----2----2----2--------------|
E|-0------------------------4----5----6----7\-----------|


Smoke On The Water:
E|------------------------------------------------------|
B|------------------------------------------------------|
G|----3--3-------3--6-5-------3--5----3-----------------|
D|-5--3--3----5--3--6-5----5--3--5----3--5--------------|
A|-5----------5------------5-------------5--------------|
E|------------------------------------------------------|


Iron Man:
E|------------------------------------------------------|
B|------------------------------------------------------|
G|------------------------------------------------------|
D|-4/--7----7/9--9----12\11-12\11-12\11-7--7/9--9-------|
A|-2/--5----5/7--7----10\9--10\9--10\9--5--5/7--7-------|
E|------------------------------------------------------|

Beat It:
E|------------------------------------------------------|
B|------------------------------------------------------|
G|------------------------------------------------------|
D|----------5-2~---2h4--2-------------------------------|
A|--------2----------------5--5-------------------------|
E|-0----3-----------------------------------------------|


Daytripper:
E|------------------------------------------------------|
B|------------------------------------------------------|
G|------------------------------------------------------|
D|------------2-0----4----0-2---------------------------|
A|----------2------2----2-------------------------------|
E|-0----3-4---------------------------------------------|


Eye Of The Tiger:
E|------------------------------------------------------|
B|------------------------------------------------------|
G|-5----5--3--5----5--3--5----5--3----------------------|
D|-5----5--3--5----5--3--5----5--3--6-------------------|
A|-3----3--1--3----3--1--3----3--1--6-------------------|
E|----------------------------------4-------------------|


Pretty Woman:
E|------------------------------------------------------|
B|------------------------------------------------------|
G|------------------------------------------------------|
D|-----------4-2----------------4-2---------------------|
A|-------2-5-----5----------2-5-----5-------------------|
E|-0-0-4--------------0-0-4-----------------------------|


Money:
E|------------------------------------------------------|
B|------------------------------------------------------|
G|----4-------------------------------------------------|
D|------4-----------------------------------------------|
A|-2------2--------2--5---------------------------------|
E|-----------2--5---------------------------------------|


Come As You Are:
E|------------------------------------------------------|
B|------------------------------------------------------|
G|------------------------------------------------------|
D|------------------------------------------------------|
A|----------0---0----------2----------------------------|
E|-0-0-1-2----2---2-2-1-0----0-0------------------------|

E|------------------------------------------------------|
B|------------------------------------------------------|
G|------------------------------------------------------|
D|------------------------------------------------------|
A|-2--------0---0---------2-----------------------------|
E|---0-1-2----2---2-2-1-0---0-0-------------------------|
Colaboração e revisão:
  • Vinícius Dias
  • Caroline Leroy
74.934 exibições
    • ½ Tom
    • A
    • Bb
    • B
    • C
    • Db
    • D
    • Eb
    • E
    • F
    • F#
    • G
    • Ab
  • Adicionar à lista

    0 comentários

    Mostrar mais comentários

    Conseguiu tocar?

    21 Tocaram 1 Ainda não

    Grave um vídeo tocando Os Mais Famosos Riffs de Guitarra - Parte 1 e mande pra gente!

    Relacionados

    00:00 / 00:00
    outros vídeos desta música
    repetir qualidade Automático
    Outros vídeos desta música
    00:00 / 00:00
    Automático
    Capítulos
    • Dicas Iniciais
    • Enter Sandman - Metallica
    • Sunshine Of Your Love - Cream
    • (I Can't Get No) Satisfaction - Rolling Stones
    • Bad To The Bone - George Thorogood
    • Back In Black - AC/DC
    • Smoke On The Water - Deep Purple
    • Iron Man - Black Sabbath
    • Beat It - Michael Jackson
    • Daytripper - Beatles
    • Eye Of The Tiger - Survivor
    • Pretty Woman - Roy Orbison
    • Money - Pink Floyd
    • Come As You Are - Nirvana
    • Encerramento
    • Ficha técnica

    Cifra Club Pro

    Aproveite o Cifra Club com benefícios exclusivos e sem anúncios
    7 dias grátis
    Cifra Club Pro
    Aproveite o Cifra Club com benefícios exclusivos e sem anúncios
    7 dias grátis
    OK