Cifra Club

Always In My Head

Coldplay

Tab de baixo: Principal
exibições 314
Introdução (1/2):
G|-----------------------------------------------------|
D|-----------------------------------------------------|
A|------------5----/7--\3------------------------------|
E|-3----/6---------------------------------------------|

Introdução (2/2):
G|-----------------------------------------------------|
D|-----------------------------------------------------|
A|------------5-------3--------------------------------|
E|-3----/6---------0-----3-----------------------------|

Verso (1/3): sem contrabaixo

Verso (2/3):
G|-----------------------------------------------------|
D|-----------------------------------------------------|
A|------------5----/7--\3------------------------------|
E|-3----/6---------------------------------------------|

Verso (3/3):
G|-----------------------------------------------------|
D|-----------------------------------------------------|
A|------------5-------3--------------------------------|
E|-3----/6---------0-----------------------------------|

Refrão (1/4):
G|-----------------------------------------------------|
D|-----------------------------------------------------|
A|-------------------------5--5-5-------3--3h5---------|
E|-3--3-3--1-3-6--6-6--6h8---------0--0----------------|

Refrão (2/4):
G|-------------------------------------------8---------|
D|--------------------------------------------10-------|
A|-------------------------5--5-5-7-7/-10-10-----9-----|
E|-3--3-3--/6--6-6--6h8--------------------------------|

Refrão + Solo Guitarra (3/4):
G|-----------------------------------------------------|
D|-----------------------------------------------------|
A|-------------------------5--5-5----5-3--3-3--3h5-----|
E|-3--3-3--1-3-6--6-6--6h8---------5-------------------|

Refrão + Solo Guitarra (4/4):
G|-----------------------------------------------------|
D|-----------------------------------------------------|
A|-----------------------5--5-5----5-3--3-3--3h5-------|
E|-3--3-3--5-6--6-6--6h8---------5---------------------|

Verso Final:
G|-----------------------------------------------------|
D|-----------------------------------------------------|
A|-------------------5--5-5---/7--/3-------------------|
E|-3--3-3---/6--6-6-------------------3----------------|
Colaboração e revisão:
  • Vinicius Chagas
  • Paulo Richa

0 comentários

    mostrar mais comentários

    Conseguiu tocar?

    0tocaram0ainda não

    Grave um vídeo tocando Always In My Head e mande pra gente!

    00:00 / 00:00
    outros vídeos desta música
    repetirqualidadeautomática
    Outro vídeos desta música
      00:00 / 00:00
      automática
      OK