Cifra Club

Daylight

Coldplay

Tab de baixo: Principal
exibições 540
Intro 

Inicia junto com a bateria
G|---------------------------------------------------------|
D|---------------------------------------------------------|
A|-7-7-7-7-7-10-10-10-10-10-10-9-9-9-9-9-9-9-9-9-9-9-------| 2x
E|---------------------------------------------------------|

Verso 1

Riff do até o refrao
Entra em "I am nothing..."

G|-----9-9---------9-9-------9-9------9-9-----------------|
D|---------9----------9----------9--------9---------------|
A|-7-7-------10-10------9-9--------9-9--------------------|
E|--------------------------------------------------------|

Refrão

G|-----------------------------------------------------------------|
D|-----------------------------------------------------------------|
A|-------------5555555555-99999999999-12-12-12-12-12-12-12-12-12-12| 
E|-55555555555-----------------------------------------------------|

G|--------------------------------------------------|
D|--------------------------------------------------|
A|-------------5555555555-99999999999---------------| 
E|-55555555555------------------------55555555555---|

G|--------------------------------------------------|
D|--------------------------------------------------|
A|-12-12-12-12-12-12-12-12-12-12-5555555555-9~------| 
E|--------------------------------------------------|

Verso 2

Entra em "Like a firstborn..." (2x)

G|-----9-9--------9-9-------9-9------9-9-----------------|
D|---------9---------9----------9--------9---------------|
A|-7-7-------10-10-----9-9--------9-9--------------------|
E|-------------------------------------------------------|


"And at full tilt, and at full flight"  (2x)
G|-----9-9---------9-9-------11-11-------11-11-----------|
D|---------9-----------9-----------11----------11--------|
A|-7-7-------10-10-------9-9----------9-9----------------|
E|-------------------------------------------------------|

Refrão

G|-----------------------------------------------------------------|
D|-----------------------------------------------------------------|
A|-------------5555555555-99999999999-12-12-12-12-12-12-12-12-12-12| 
E|-55555555555-----------------------------------------------------|

G|--------------------------------------------------|
D|--------------------------------------------------|
A|-------------5555555555-99999999999---------------| 
E|-55555555555------------------------55555555555---|

G|--------------------------------------------------|
D|--------------------------------------------------|
A|-12-12-12-12-12-12-12-12-12-12-5555555555-9~------| 
E|--------------------------------------------------|

Riff final do Guy, só alternar entre os dois até o final

G|-9--------------------------|
D|---11-9-11-9----------------|
A|-------------7-7-9-9-9------|
E|----------------------------|

G|-11-------------------------|
D|---11-9-11-9----------------|
A|-------------7-7-9-9-9------|
E|----------------------------|
Composição: Chris Martin / Guy Berryman / Jon Buckland / Will ChampionColaboração e revisão:
  • Vinicius Chagas

0 comentários

    mostrar mais comentários

    Conseguiu tocar?

    0tocaram0ainda não

    Grave um vídeo tocando Daylight e mande pra gente!

    00:00 / 00:00
    outros vídeos desta música
    repetirqualidadeautomática
    Outro vídeos desta música
      00:00 / 00:00
      automática
      OK