Cifra Club

Angels Of The Silences

Counting Crows

Cifra: Principal (violão e guitarra)
tom: A
G#5              A5                E5             B5
Well I guess you left me with some feathers in my hand
        G#5        A5         E5             B5
Did it make it any easier to leave me where I stand?
              G#5              A5                E5             B5
I guess there might not be too many who would stand beside you now
            G#5              A5              
Where'd you come from?     Where am I going?
            E5                B5
Why'd you leave me 'till I'm only good for

E        E/C#
Waiting for you
G#m    B
All my sins

            F#m             A
I said that I would pay for them if I could
E          E/C#
come back to you
G#m        B           F#m
All my innocence is wasted on the dead and dreaming

G#5              A5                E5             B5                                              
Every night these silohuettes appear above my head
        G#5              A5        E5             B5
Little angels of the silences that climb into my bed and whisper
G#5           A5             E5           B5
Every time I fall asleep    Every time I dream
         G#5              A5                
"Did you come?  Would you lie?
            E5                  B5
Why'd you leave us 'till we're only good for

Waiting for you

G#m    B
All my sins...

            F#m             A
I said that I would pay for them if I could

E          E/C#
come back to you

G#m        B           F#m
All my innocence is wasted on the dead and dreaming

I dream of Michelangelo when I'm lying in my bed
                                     * (w/ fill 3)
Little angels hang above my head and read me like an open book
Suck my blood   break my nerve   offer me their arms
Well, I will not be an enemy of anything
I'll only stand here

Fill 3
E|--0-------|
B|--4-------|
G|--4-------|
D|--6-------|
A|--6-------|
E|--------7\|

E|--12----------14p12------12------12----------14p12------12------|
B|------12--12---------12------12------12--12---------12------12--|
G|----------------------------------------------------------------|
D|----------------------------------------------------------------|
A|----------------------------------------------------------------|
E|----------------------------------------------------------------|

E|--12----------14p12------12------12b(14)r12------|
B|------12--12---------12------12--------------12--|
G|-------------------------------------------------|
D|-------------------------------------------------|
A|-------------------------------------------------|
E|-------------------------------------------------|

E|--12------12--14--12----------12------12--14--12----------|
B|------12--------------12--12------12--------------12--12--|
G|----------------------------------------------------------|
D|----------------------------------------------------------|
A|----------------------------------------------------------|
E|----------------------------------------------------------|

E|--12------12--14--12----------16b(17)r16--14--|
B|------12--------------12--12------------------|
G|----------------------------------------------|
D|----------------------------------------------|
A|----------------------------------------------|
E|----------------------------------------------|

Waiting for you
All my sins...
I said that I would pay for them if I could come back to you
All my innocence is wasted on the dead and dreaming


Guitar 2 plays this riff twice over the chorus:
E|-12--12--12-12--12--12-12--|--12-12--12--12-12--12--12-12--12--|
B|/12--12--12/12--12--12/12--|--12/12--12--12/12--12--12/12--12--|
G|---------------------------|-----------------------------------|
D|---------------------------|-----------------------------------|
A|---------------------------|-----------------------------------|
E|---------------------------|-----------------------------------|

E|------11----------11------|----------------|
B|----------12----------12--|-----2-------5--|
G|--13----------11----------|-----2-------6--|
D|--------------------------|--4--4--4/7--7--|
A|--------------------------|--4--4--4/7--7--|
E|--------------------------|----------------|


Ending:
Guitar 1 plays E5(II) throught the ending

* (Guitar 2 enters here with the part below)
I'm gone...I'm gone...I'll leave today, I'm gone
I'm gone...I'm gone...Take me away, I'm gone
I'm gone...I'm gone...I'll leave today
I'm gone I'm gone I'm gone I'm gone I'm gone
I'm gone


E|-----------------|-----------------|
B|-----------------|-----------------|
G|--9--------8-----|--9--------8-----|
D|--9--------9-----|--7--------9-----|
A|--7--------9-----|--7--------9-----|
E|-----7--------7--|-----7--------7--|

E|---------------|----------------------|
B|---------------|----------------------|
G|--9-----11-----|--13------------------|
D|---------------|----------------------|
A|--7-----9------|--11-----9b(11)r9-----|
E|-----7------7--|------7------------7--|

E|--0--0--0--0--0--0--0--0--0--0--0--0--|
B|--0--0--0--0--0--0--0--0--0--0--0--0--|
G|--9--9--9--9--9--9--8--8--8--8--8--8--|
D|--9--9--9--9--9--9--9--9--9--9--9--9--|
A|--7--7--7--7--7--7--9--9--9--9--9--9--|
E|-----------7--7--7-----------7--7--7--|

E|--0---0---0---0---0---0---0--0--0--0--0--0--|
B|--10--10--10--10--10--10--0--0--0--0--0--0--|
G|--9---9---9---9---9---9---8--8--8--8--8--8--|
D|--7---7---7---7---7---7---9--9--9--9--9--9--|
A|--7---7---7---7---7---7---9--9--9--9--9--9--|
E|--------------7---7---7------------7--7--7--|

E|-----12--12--12--12--12--12--12--|
B|--10/12--12--12--12--12--12--12--|
G|---------------------------------|
D|---------------------------------|
A|---------------------------------|
E|---------------------------------|

E|-----12--12--12--12--12--12--12--|
B|--10/12--12--12--12--12--12--12--|
G|---------------------------------|
D|---------------------------------|
A|---------------------------------|
E|---------------------------------|

E|-----12--12--12--12--12--12--12--|
B|--10/12--12--12--12--12--12--12--|
G|---------------------------------|
D|---------------------------------|
A|---------------------------------|
E|---------------------------------|

E|---12--12--12--12--12--12--12--12--|-------|
B|--/12--12--12--12--12--12--12--12--|-------|
G|-----------------------------------|-1-----|
D|-----------------------------------|-2-----|
A|-----------------------------------|-2-----|
E|-----------------------------------| \0~~~--|
00:00 / 00:00
Outros vídeos desta música
Repetir
Outros vídeos desta música
Composição de Adam Duritz / Charlie Gillingham / Counting Crows
Colaboração e revisão:
  • Wallace Attie
5.064 exibições
    • ½ Tom
    • A
    • Bb
    • B
    • C
    • Db
    • D
    • Eb
    • E
    • F
    • F#
    • G
    • Ab
  • Adicionar à lista

    0 comentários

    Ver todos os comentários

    Entre para oCifra Club PRO

    Tenha acesso a benefícios exclusivos no App e no Site

    • Chega de anúncios

    • Prioridade de compra em lançamentos

    • Mais recursos no app do Afinador

    • Atendimento Prioritário

    • Descontos nos produtos Cifra Club

    • Ajude a produzir mais conteúdo

    00:00 / 00:00

    Cifra Club Pro

    Aproveite o Cifra Club com benefícios exclusivos e sem anúncios
    Cifra Club Pro
    Aproveite o Cifra Club com benefícios exclusivos e sem anúncios
    OK