Cifra Club

My Sacrifice

Creed

Tab de baixo: Principal
exibições 36.109
[Introdução]

G|----------------------------------------------|
D|--------------------------------------------4-|
A|-----5-----5-4h5-----5-----5-4h5--2-2-2-2-2---|
D|-0-0---0-0-------0-0---0-0--------------------|

G|----------------------------------------------|
D|----------------------------------------------|
A|-2-2--2-2-2/-10-10-10--10-9h10-10-10-10-12----|
D|----------------------------------------------|

[Primeira parte]

Hello, my friend, we meet again...

Parte 1 de 2
G|----------------------------------------------|
D|--------------------------------------------4-|
A|-----5-----5-4h5-----5-----5-4h5--2-2-2-2-2---|
D|-0-0---0-0-------0-0---0-0--------------------|

G|----------------------------------------------|
D|---------------5-5-5-5--5-4h5-5-5-5-7---------|
A|-2-2--2-2-2-h5--------------------------------|
D|----------------------------------------------|

Parte 2 de 2
G|----------------------------------------------|
D|--------------------------------------------4-|
A|-----5-----5-4h5-----5-----5-4h5--2-2-2-2-2---|
D|-0-0---0-0-------0-0---0-0--------------------|

G|----------------------------------------------|
D|---------------5-5-5-5--5--5-5----------------|
A|-2-2--2-2-2-h5--------------------------------|
D|--------------------------------5/7--5/7------|


[Refrão 2x]

When you are with me...
G|----------------------------------------------|
D|----------------------------------------------|
A|--------------4h5-------------4--4-4-4--4-4---|
D|-0—0-0-0--0------0-0--0--0-0------------------|

G|----------------------------------------------|
D|----------------------------------------------|
A|-5-5-5-5-7-7-7-7---2--2-2-2-2-2--2-2-4-4-5-5--|
D|----------------------------------------------|

G|----------------------------------------------|
D|----------------------------------------------|
A|----------------------------------------------|
D|-5--5-5--5-5--0-5p3-0-3--0-5p3----------------|



[Introdução 2]

G|----------------------------------------------|
D|--------------------------------------------4-|
A|-----5-----5-4h5-----5-----5-4h5--2-2-2-2-2---|
D|-0-0---0-0-------0-0---0-0--------------------|

G|----------------------------------------------|
D|----------------------------------------------|
A|-2-2--2-2-2/-10-10-10--10-9h10-10-10-10-10-12-|
D|----------------------------------------------|

[Segunda parte]

We've seen our share of ups and downs...

Parte 1 de 2
G|----------------------------------------------|
D|--------------------------------------------4-|
A|-----5-----5-4h5-----5-----5-4h5--2-2-2-2-2---|
D|-0-0---0-0-------0-0---0-0--------------------|

G|----------------------------------------------|
D|---------------5-5-5-5--5-4h5-5-5-5-5-7-------|
A|-2-2--2-2-2-h5--------------------------------|
D|----------------------------------------------|

Parte 2 de 2
G|----------------------------------------------|
D|--------------------------------------------4-|
A|-----5-----5-4h5-----5-----5-4h5--2-2-2-2-2---|
D|-0-0---0-0-------0-0---0-0--------------------|

G|----------------------------------------------|
D|---------------5-5-5-5--5--5-5----------------|
A|-2-2--2-2-2-h5--------------------------------|
D|--------------------------------5/7--5/7------|


[Refrão 2 - 2x]

When you are with me...
G|----------------------------------------------|
D|----------------------------------------------|
A|--------------4h5-------------4--4-4-4--4-4---|
D|-0--0-0-0--0------0-0--0--0-0-----------------|

G|----------------------------------------------|
D|----------------------------------------------|
A|-5-5-5-5-7-7-7-7---2--2-2-2-2-2--2-2-4-4-5-5--|
D|----------------------------------------------|

G|----------------------------------------------|
D|----------------------------------------------|
A|----------------------------------------------|
D|-5--5-5--5-5--0-5p3-0-3--0-5p3----------------|



[Terceira parte]

I just want to say hello again...

Parte 1 de 3
G|----------------------------------------------|
D|----------------------------------------------|
A|----------------------------------------------|
D|-0-0-0-0-0--0-0-0-0--0-0-0-0--0-0-0-0-0-0-0-0-|

Parte 2 de 3  (3x) 

G|----------------------------------------------|
D|----------------------------------------------|
A|----------------------------------------------|
D|-0--0-0-0--0--0-0-0-0-0--0-0-0-0-0-0-0--------|

G|----------------------------------------------|
D|----------------------------------------------|
A|----------------------------------------------|
D|-0-0-0-0-0--0-0-0-0---------------------------|

Parte 3 de 3
G|----------------------------------------------|
D|----------------------------------------------|
A|----------------------------------------------|
D|-12--12-12-12-12-12--12-12-12-12-12-----------|

G|----------------------------------------------|
D|----------------------------------------------|
A|----------------------------------------------|
D|-10/12-12-12-0--10/12-12-12-12----------------|

G|----------------------------------------------|
D|----------------------------------------------|
A|----------------------------------------------|
D|-12-12--12--0---------------------------------|


[Refrão 3]

When you are with me...

Parte 1 de 2 
G|----------------------------------------------|
D|----------------------------------------------|
A|--------------4h5-------------4--4-4-4--4-4---|
D|-0--0-0-0--0------0-0--0--0-0-----------------|

G|----------------------------------------------|
D|----------------------------------------------|
A|-5-5-5-5-7-7-7-7---2--2-2-2-2-2--2-2-4-4-5-5--|
D|----------------------------------------------|

G|----------------------------------------------|
D|----------------------------------------------|
A|----------------------------------------------|
D|-5--5-5--5-5--0-5p3-0-3--0-5p3----------------|

Parte 2 de 2
G|----------------------------------------------|
D|----------------------------------------------|
A|-------------4h5-----5h7-4--4-4---------------|
D|-0-0-0-0--0------0-0------------7-7-7-7-0-5---|

G|----------------------------------------------|
D|----------------------------------------------|
A|----------------2--2-2-2-2-2--2-2-4-4-5-5-----|
D|-7-7-0-5-7-7-5--------------------------------|

G|----------------------------------------------|
D|----------------------------------------------|
A|----------------------------------------------|
D|-5--5-5--5-5--0-5p3-0-3--0-5p3----------------|

[Quarte parte - final]

Parte 1 de 3

G|----------------------------------------------|
D|----------------------------------------------|
A|----------------------------------------------|
D|-0--0-0-0-0-0-0-0-0--0-0-0-0--0-0-0-0-0-0-0-0-|

Parte 2 de 3 (2x) 
G|----------------------------------------------|
D|----------------------------------------------|
A|----------------------------------------------|
D|-0--0-0-0--0--0-0-0-0-0--0-0-0-0-0-0-0--------|

G|----------------------------------------------|
D|----------------------------------------------|
A|----------------------------------------------|
D|-0-0-0-0-0--0-0-0-0---------------------------|

Parte 3 de 3
G|----------------------------------------------|
D|----------------- ----------------------------|
A|----------------------------------------------|
D|-12--12-12-12-12-12--12-12-12-12--------------|

G|----------------------------------------------|
D|----------------------------------------------|
A|----------------------------------------------|
D|-10/12-12-12-0--10/12-12-12-12----------------|

G|----------------------------------------------|
D|----------------------------------------------|
A|----------------------------------------------|
D|-12-12--12--0---------------------------------|
Composição: Günter Schulz / Mark Tremonti / Scott Stapp Colaboração e revisão:
  • Reginaldo Costa

0 comentários

mostrar mais comentários

Conseguiu tocar?

1 tocaram 0 ainda não

Grave um vídeo tocando My Sacrifice e mande pra gente!

00:00 / 00:00
outros vídeos desta música
repetir qualidade Automático
Outros vídeos desta música
00:00 / 00:00
Automático
Capítulos
  • Tocando a música
  • Apresentação / Equipamentos
  • Afinação / Configurações
  • Introdução 1
  • Primeira Parte - Parte 1 de 2
  • Primeira Parte - Parte 2 de 2
  • Refrão 1
  • Terceira Parte - Parte 1 de 3
  • Primeira Parte - Parte 2 de 3
  • Primeira Parte - Parte 3 de 3
  • Refrão 3 - Parte 1 de 2
  • Refrão 3 - Parte 2 de 2
  • Quarta Parte - Parte 1 de 3
  • Quarta Parte - Parte 2 de 3
  • Quarta Parte - Parte 3 de 3
  • Encerramento
OK