Cifra Club

Traição a Queima Roupa (part. Jads e Jadson)

Cristiano Araújo

Cifra: Principal (violão e guitarra)
tom: C
Intro : Dm  Dm  C  C  Am

E|----------------------------------------------------12-10-8--------------|
B|-------------------------------------------------------------------------|
G|-------------------------------------------------10/12-10-9--------------|
D|----5----------------5------------------5--------------------------------|
A|-5h7-7-5--5----5--5h7--7-5--5-----5--5h7--7-5----------------------------|
E|--------8---5-8-----------8---5-8------------8-8-------------------------| 

E|---------------------------------8-7-5----------------------------|
B|------------------------------------------------------------------|
G|-------------------------------7/9-7-5----------------------------|
D|----5----------------5--------------------------------------------|
A|-5h7-7-5--5----5--5h7--7-5----------------------------------------|
E|--------8---5-8-----------8-8-------------------------------------|


Am
Tava tudo tão perfeito
Era só eu e você
G
Mensagem o dia inteiro
Tô querendo te ver
F/C
Vamos sair tomar uma
A saudade tá demais
Vamo lá no sertanejo
G             Am
Vamo curtir em paz

Am
Quando a gente chegou
Eu me senti nervoso
G
Eu tava meio inquieto
E com olhar curioso
F/C
Todas que passavam
Eu não me controlava
Loira ou morena
G           Dm
Todas eu olhava

Dm                                     Am
Depois da terceira dose fui lá no banheiro
Am         G                 F
Achando que eu iria te enganar
F                                   Am
Você desconfiada reparando no meu jeito
                                           F
Veio atrás porque sentiu que tinha algo suspeito
Dm                    G
E ali bem no meio do bar

                 C
Ai, ai, ai, ai, ai
                  Dm
Agora ela ficou louca
                           F/C
Fui no banheiro e beijei outra
G                       C
Foi traição a queima roupa
                C
Ai, ai, ai, ai, ai
                  Dm
Agora ela ficou louca
                          F/C
Me viu beijando outra na boca
G                      C
Foi traição a queima roupa

( Cai O Tom Para F# )

Intro: G#m  G#m   F#   F#  D#m

E|---------------------------------------------16-15-13------------6-4-2--------|
B|-----------------------------------------------------------------7-6-4--------|
G|------------------------------------------15/17-15-14-------------------------|
D|------------------------------------------------------------------------------|
A|-----4-------------4-------------4-----------------------4--------------------|
E|--4h6-6-4-2-4---4h6-6-4-2-4---4h6-6-4-2-2-------------4h6-6-4-2-2-------------|


D#m
Quando a gente chegou
Eu me senti nervoso
C#
Eu tava meio inquieto
E com olhar curioso
B
Todas que passavam
Eu não me controlava
Loira ou morena
            G#m
Todas eu olhava
G#m                                  D#m
Depois da terceira dose fui lá no banheiro
D#m         C#              B
Achando que eu iria te enganar
                                  B
Você desconfiada reparando no meu jeito
                                        B
Veio atrás porque sentiu que tinha algo suspeito
                     C#
E ali bem no meio do bar
               F#
Ai, ai, ai, ai, ai
                  G#m
Agora ela ficou louca
                         B
Fui no banheiro e beijei outra
                       F#
Foi traição a queima roupa
               F#
Ai, ai, ai, ai, ai
                G#m
Agora ela ficou louca
                         B
Me viu beijando outra na boca
                      F#
Foi traição a queima roupa

Final: B   C#   F#
00:00 / 00:00
Outros vídeos desta música
Repetir
Outros vídeos desta música
Composição de Gui Artioli / Nuto Artioli
Colaboração e revisão:
52.734 exibições
    • ½ Tom
    • A
    • Bb
    • B
    • C
    • Db
    • D
    • Eb
    • E
    • F
    • F#
    • G
    • Ab
  • Adicionar à lista

    0 comentários

    Ver todos os comentários

    Conseguiu tocar?

    3 Tocaram 0 Ainda não

    Grave um vídeo tocando Traição a Queima Roupa (part. Jads e Jadson) e nos envie!

    Entre para oCifra Club PRO

    Tenha acesso a benefícios exclusivos no App e no Site

    • Chega de anúncios

    • Prioridade de compra em lançamentos

    • Mais recursos no app do Afinador

    • Atendimento Prioritário

    • Descontos nos produtos Cifra Club

    • Ajude a produzir mais conteúdo

    00:00 / 00:00

    Cifra Club Pro

    Aproveite o Cifra Club com benefícios exclusivos e sem anúncios
    Cifra Club Pro
    Aproveite o Cifra Club com benefícios exclusivos e sem anúncios
    OK