Notificações Amigos pendentes

      Cristiano Araújo

      Você Mudou

      945.307 exibições
      Tom: A
      Intro: D  Bm  G  A
      
      
      E|-----------------------------|
      B|-1/3---3-5-5/8-7-8-7-5-3-2---|
      G|-----2-----------------------|
      D|-----------------------------|
      A|-----------------------------|
      E|-----------------------------|
      
      
      E|-----------------------------|
      B|-3---3-5-5/8-7-8-7-5-3-2-----|
      G|---2-------------------------|
      D|-----------------------------|
      A|-----------------------------|
      E|-----------------------------|
      
      
      E|-----------------------------|
      B|-3---3-5-5/8-7-8-7-5-3-2-----|
      G|---2-------------------------|
      D|-----------------------------|
      A|-----------------------------|
      E|-----------------------------|
      
      
      E|-----------------------------|
      B|-3---3-5-5/8-7-8-7-5-3-2-3---|
      G|---2-------------------------|
      D|-----------------------------|
      A|-----------------------------|
      E|-----------------------------|
      
      
      D
      Te falei mas você não me ouviu
             Bm
      Quis viver na ilusão
           G            Em
      O vazio que você deixou em mim
             A
      Maltratou meu coração
      
             D
      Não ligou pra minha solidão
               Bm
      Tinha que acabar assim
            G           Em
      Sera triste uma noite sem você
             A
      Mas será o melhor pra mim
      
             D
      Não importa o que me faça
                  Bm
      Não tem paixão quando me abraça
              G
      Sem destino para longe sei que vou
               A
      Irei em busca de um novo amor
      
      Refrão 2x:
          D
      E quando despertar
            Bm
      Não ira me encontrar
                 G
      Quem sabe ai meu bem
      
      Talvez você consiga entender
                   A
      Que a minha vida não pertence a você
      
            G             C   G
      De você só vou lembrar-me
              C   D   Em
      Quando tudo começou (Riff 1)
            Bm
      Você é a mulher
      
      Que eu sempre sonhei
      
              G   A
      Me enganei
                           D
      Pois você meu bem mudou  (Riff 2)
                           Bm
      Pois você meu bem mudou
                           G
      Pois você meu bem mudou  (Riff 3)
      
      G                       A
      Acho que você não entendeu
      
      Que quando o amor se acaba
      D                    G
      Na verdade nunca se amou
      Em                         A
      Siga o teu caminho que eu vou
                   Bm
      Em busca do meu
      
      G                       A
      Acho que você não entendeu
                            D
      Que se acabou o meu amor
                     G      D
      Não terá mais uma vez
      
      Em                        A
      Por favor não tente me achar
                     D                    G   D
      Você não gostaria do que vai encontrar
                             Em
      Então verás que sou feliz com esse amor
            A              D
      Como jamais serei com você
      
      Solo 2x: D  Bm  G  A
      
      
      E|--------------------------------------------------------------------------|
      B|---1/3-----3-3h5-3------5/7-7-----7-7/8-7--5-7-5--------------------------|
      G|-------------------------------------------------7-6-7-6-4-2-4-2----------|
      D|-------4-4---------4-4--------4-4--------------------------------5-4------|
      A|--------------------------------------------------------------------------|
      E|--------------------------------------------------------------------------|
      
      
      E|-5/10-10-10-10-10-10-10---10-10-9-9-7-7-----------------------------------|
      B|----------------------------------------10-10-8-8-7-7---------------------|
      G|------------------------------------------------------9-9-7-7p6-----------|
      D|--------------------------------------------------------------------------|
      A|--------------------------------------------------------------------------|
      E|--------------------------------------------------------------------------|
      
      
      E|----------------------------------------------7-9----11\10----------------|
      B|-------------------------------7---7-9-7-9-10-----------------------------|
      G|-------------6---6-7-6-7-9-7-9---9----------------------------------------|
      D|-7-6-7-9-7-9---9----------------------------------------------------------|
      A|--------------------------------------------------------------------------|
      E|--------------------------------------------------------------------------|
      
      
      G                       A
      Acho que você não entendeu
      
      Que quando o amor se acaba
      D                    G
      Na verdade nunca se amou
      Em                         A
      Siga o teu caminho que eu vou
                   Bm
      Em busca do meu
      
      G                       A
      Acho que você não entendeu
                            D
      Que se acabou o meu amor
                     G      D
      Não terá mais uma vez
      
      Em                        A
      Por favor não tente me achar
                     D                    G   D
      Você não gostaria do que vai encontrar
                             Em
      Então verás que sou feliz com esse amor
            A              D
      Como jamais serei com você
      
      Solo Final: D  Bm  G  A
      
      
      E|----------------------------------------------------------------|
      B|--8/10-8-7-8-7--------------------------------------------------|
      G|---------------9-9-9----------7-7-6-----------------------------|
      D|---------------------9---7-9--------9-9--7-7--5-5--4-4----------|
      A|-------------------------------------------------------5-5/7~---|
      E|----------------------------------------------------------------|
      
      
      E|----------------------------|
      B|----------6/8-7-8-7---------|
      G|--7---7-9-----------9-7-6-7-| (4x)
      D|----7-----------------------|
      A|----------------------------|
      E|----------------------------|
      
      
      Riff 1:
      
      E|-2-3-2-3-2-3-2-3-2-----|
      B|-------------------3-2-|
      G|-----------------------|
      D|-----------------------|
      A|-----------------------|
      E|-----------------------|
      
      
      Riff 2:
      
      E|-2-3-2~-|
      B|--------|
      G|--------|
      D|--------|
      A|--------|
      E|--------|
      
      
      Riff 3:
      
      E|-2-3-2----------|
      B|-------4-3-2-3--|
      G|----------------|
      D|----------------|
      A|----------------|
      E|----------------|
      
        Composição: Sandro Lemes/Boiadeiro/Jim SteinmanColaboração e revisão:
        • mogly
        • clebersonvosilk
        • BrunnoNunnes
        • m.violao
        • +3

        Comentários 136

        140 .
        • lucas lucas: Em 18/07/2016 18:49

          cade os rifs dessa porra

        • Hudson Hudson: Em 26/12/2015 21:50

          Poxa, vocês poderiam fazer a vídeo aula.

        • malu100 malu100: Em 30/11/2015 12:29

          Video aula seria mt bom, essa musica é linda.

        • malu100 malu100: Em 21/11/2015 16:53

          qual o ritmo ?

        • Jefson Jefson: Em 04/11/2015 15:42

          tem que ter a video aula perdi o ritmo da musica qunado eu vou tocar nao consigo realinhar as maos na hr de tocar na cordas ai a musica fica

        • Marcelo Marcelo: Em 22/10/2015 15:22

          so faltou fazer a video aula

        • alisson alisson: Em 27/07/2015 17:05

          A tab do solo esta errado nao e o que ta na musica

        • Rodrigo Rodrigo: Em 29/06/2015 17:02

          Top

        • virgilioclima virgilioclima: Em 26/06/2015 10:58

          A música mais bonita dele e não tem videoaula.

        • josias josias: Em 01/08/2014 13:00

          e massa

        140 cancelar

        conseguiu tocar?

        • •••

        covers

        Grave um vídeo tocando Você Mudou e mande pra gente!

        Ex.: http://www.youtube.com/watch?v=0IvSvIwGdwk
        ver covers de outras músicas »
        0:00 / 0:00

        Capítulos

          2 versões de violão dificuldade exibições contribuição e correção
          2 versões de guitarra dificuldade exibições contribuição e correção
          2 versões de cavaco dificuldade exibições contribuição e correção
          2 versões de teclado dificuldade exibições contribuição e correção
          play/pausefechar subir/descer velocidade
          6ª corda E5ª corda A4ª corda D3ª corda G2ª corda B1ª corda E
            acordes
            publicidade
            fechar
            ok