Cifra Club

Aprenda

Você Mudou

Cristiano Araújo

Cifra: Principal (violão e guitarra)
tom: Em
[Intro] D  Bm  G  A

E|-----------------------------|
B|-1/3---3-5-5/8-7-8-7-5-3-2---|
G|-----2-----------------------|
D|-----------------------------|
A|-----------------------------|
E|-----------------------------|
  
E|-----------------------------|
B|-3---3-5-5/8-7-8-7-5-3-2-----|
G|---2-------------------------|
D|-----------------------------|
A|-----------------------------|
E|-----------------------------|
    
E|-----------------------------|
B|-3---3-5-5/8-7-8-7-5-3-2-----|
G|---2-------------------------|
D|-----------------------------|
A|-----------------------------|
E|-----------------------------|
    
E|-----------------------------|
B|-3---3-5-5/8-7-8-7-5-3-2-3---|
G|---2-------------------------|
D|-----------------------------|
A|-----------------------------|
E|-----------------------------|

[Primeira Parte]
  
      D
Te falei mas você não me ouviu
        Bm
Quis viver na ilusão
     G               Em
O vazio que você deixou em mim
       A   
Maltratou meu coração

       D
Não ligou pra minha solidão
        Bm
Tinha que acabar assim
       G            Em
Sera triste uma noite sem você
       A                  
Mas será o melhor pra mim

       D
Não importa o que me faça
            Bm
Não tem paixão quando me abraça
        G              Em
Sem destino para longe sei que vou
         A
Irei em busca de um novo amor

    D
E quando despertar
      Bm
Não ira me encontrar
           G
Quem sabe ai meu bem
               Em
Talvez você consiga entender
             A
Que a minha vida não pertence a você

D
E quando despertar
      Bm
Não ira me encontrar
           G
Quem sabe ai meu bem
              Em
Talvez você consiga entender
             A
Que a minha vida não pertence a você

      G             C   G
De você só vou lembrar-me
        C    D   Em
Quando tudo começou (Riff 1)
     Bm
Você é a mulher

Que eu sempre sonhei

        G   A
Me enganei
                     D
Pois você meu bem mudou  (Riff 2)
        C#m7         Bm
Pois você meu bem mudou
                     G
Pois você meu bem mudou  (Riff 3)

G                       A
Acho que você não entendeu

Que quando o amor se acaba
D                    G
Na verdade nunca se amou
Em                         A
Siga o teu caminho que eu vou
         Bm
Em busca   do meu

G                       A
Acho que você não entendeu
                      D
Que se acabou o meu amor
                   G    
Não terá mais uma vez

 Em                       A
Por favor não tente me achar
               D           A     G  
Você não gostaria do que vai encontrar
                       Em
Então verás que sou feliz com esse amor
      A            D
Como jamais serei com você

[Solo]  D  Bm  G  A
        D  Bm  G  A

E|------------------------------------------|
B|---1/3-----3-3h5-3------5/7-7-----7-7/8-7-|
G|------------------------------------------|
D|-------4-4---------4-4--------4-4---------|
A|------------------------------------------|
E|------------------------------------------|
  
E|------------------------------------------|
B|-5-7-5------------------------------------|
G|-------7-6-7-6-4-2-4-2--------------------|
D|-----------------------5-4----------------|
A|------------------------------------------|
E|------------------------------------------|

E|-5/10-10-10-10-10-10-10---10-10-9-9-7-7---|
B|------------------------------------------|
G|------------------------------------------|
D|------------------------------------------|
A|------------------------------------------|
E|------------------------------------------|

E|------------------------------------------|
B|10-10-8-8-7-7-----------------------------|
G|------------9-9-7-7p6---------------------|
D|------------------------------------------|
A|------------------------------------------|
E|------------------------------------------|
  
E|------------------------------------------|
B|-------------------------------7----------|
G|-------------6---6-7-6-7-9-7-9---9--------|
D|-7-6-7-9-7-9---9--------------------------|
A|------------------------------------------|
E|------------------------------------------|

E|--------------7-9----11\10----------------|
B|---7-9-7-9-10-----------------------------|
G|-9----------------------------------------|
D|------------------------------------------|
A|------------------------------------------|
E|------------------------------------------|
  
G                       A
Acho que você não entendeu

Que quando o amor se acaba
 D                    G
Na verdade nunca se amou
 Em                        A
Siga o teu caminho que eu vou
             Bm
Em busca do meu

G                       A
Acho que você não entendeu
                      D
Que se acabou o meu amor
              G       D
Não terá mais uma vez

 Em                       A
Por favor não tente me achar
               D          A         G   D
Você não gostaria do que vai encontrar
                       Em
Então verás que sou feliz com esse amor
      A            D
Como jamais serei com você

[Solo] D  Bm  G  A

E|------------------------------------------|
B|--8/10-8-7-8-7----------------------------|
G|---------------9-9-9----------7-7-6-------|
D|---------------------9---7-9--------9-9---|
A|------------------------------------------|
E|------------------------------------------|
  
E|------------------------------------------|
B|------------------------------------------|
G|------------------------------------------|
D|-7-7--5-5--4-4----------------------------|
A|---------------5-5/7~---------------------|
E|------------------------------------------|

E|------------------------------------------|
B|----------6/8-7-8-7-----------------------|
G|--7---7-9-----------9-7-6-7---------------|
D|----7-------------------------------------|
A|------------------------------------------|
E|------------------------------------------|
  
(Riff 1)

E|-2-3-2-3-2-3-2-3-2------------------------|
B|-------------------3-2--------------------|
G|------------------------------------------|
D|------------------------------------------|
A|------------------------------------------|
E|------------------------------------------|
  
(Riff 2)

E|-2-3-2~-----------------------------------|
B|------------------------------------------|
G|------------------------------------------|
D|------------------------------------------|
A|------------------------------------------|
E|------------------------------------------|
  
(Riff 3)

E|-2-3-2------------------------------------|
B|-------4-3-2-3----------------------------|
G|------------------------------------------|
D|------------------------------------------|
A|------------------------------------------|
E|------------------------------------------|
Composição de Boiadeiro / Jim Steinman / Sandro Lemes
1.436.488 exibições
  • Simplificar cifra
    • ½ Tom
    • Am
    • Bbm
    • Bm
    • Cm
    • C#m
    • Dm
    • Ebm
    • Em
    • Fm
    • F#m
    • Gm
    • G#m
  • Adicionar à lista

    0 comentários

    Ver todos os comentários
    00:00 / 00:00
    Outros vídeos desta música
    Repetir Qualidade Automático
    Outros vídeos desta música
    00:00 / 00:00
    Automático

    Cifra Club Pro

    Aproveite o Cifra Club com benefícios exclusivos e sem anúncios
    Cifra Club Pro
    Aproveite o Cifra Club com benefícios exclusivos e sem anúncios
    OK