Cifra Club

Quemando Cartas

Delux

Cifra: Versão 2 (violão e guitarra)
tom: G

INTRO (Guitarra 1)
E|--------------------------------------------------------------------|
B|--------------------------------------------------------------------|
G|-7-7-7-7-7-7-7-7----------------------------------------------------| X2
D|-7-7-7-7-7-7-7-7--5-5-5-5-5-5-5-5--2-2-2-2-2-2-2-2--7-7-7-7-7-7-7-7-|
A|-5-5-5-5-5-5-5-5--5-5-5-5-5-5-5-5--2-2-2-2-2-2-2-2--7-7-7-7-7-7-7-7-|
E|------------------3-3-3-3-3-3-3-3--0-0-0-0-0-0-0-0--5-5-5-5-5-5-5-5-|

E|------|
B|------|
G|--7~--| X1
D|--X---|
A|--5~--|
E|------|

(Guitarra 2)
E|-----------------------------|--------------------------------|
B|---8---7---5-----7----5---5---7---8---7---5-----7-----5---5---|
G|-7---7---7---7-7---77---7---7---7---7---7---7-7---7-7---7---7-|
D|-----------------------------|--------------------------------|

E|--------------------------------|------------------------------------|
B|-7---8---7---5-----7-----5---5---7---8---10---8-----7-----8---5---5--| X2
G|---7---7---7---7-7---7-7---7---7---7---7----7---7-7---7-7---7---7---7|
D|--------------------------------|------------------------------------|

VERSO 1 (Guitarra 2) "Quemando Cartas En Donde Tu Me Decias..."
E|------------------------------------------------------------------------|
B|-/9~-7--------7/9~--7~--------5-7-5-7-5-7-5-7~---5-7-5-7-5-7-5-8-7-5-7-5|
G|---------7~-----------9~--7~--------------------------------------------|
D|---------5~-------------------------------------------------------------|
A|------------------------------------------------------------------------|
E|------------------------------------------------------------------------|

E|---------------------------------------------|
B|-5-7-5-7-5-7-5-7~---5-7-5-7-5-7--5---5-7-5---|
G|-----------------------------------7-------7-| X1
D|---------------------------------------------|
A|---------------------------------------------|
E|---------------------------------------------|

PD-C ORO (Guitarra 1) "Se Que Tu No Tardaste En Olvidar..."
E|------------------------------------------------------------------------|
B|------------------------------------------------------------------------|
G|-------------------------------7-7-7-7-7-7-7----------------------------|
D|-5-5-5-5-5-5-5--7-7-7-7-7-7-7--7-7-7-7-7-7-7--4-4-4-4-4-4--5-5-5-5-5-5-5|
A|-5-5-5-5-5-5-5--7-7-7-7-7-7-7--5-5-5-5-5-5-5--4-4-4-4-4-4--5-5-5-5-5-5-5|
E|-3-3-3-3-3-3-3--5-5-5-5-5-5-5--5-5-5-5-5-5-5--2-2-2-2-2-2--3-3-3-3-3-3-3|

E|----------------------|
B|----------------------|
G|-----------------7--7-| X1
D|-7-7-7-7-7-7-7---7--7-|
A|-7-7-7-7-7-7-7---5--5-|
E|-5-5-5-5-5-5-5---5--5-|

(Guitarra 2)
E|-----------------------------------------------------------------------|
B|-----------------------------------------------------------------------|
G|-7-7-7-7-7-7-7--9-9-9-9-9-9-9--12-12--11-11--9-9--7-7--6-6-6-6-6-6-6-6-|
D|-X-X-X-X-X-X-X--X-X-X-X-X-X-X---X--X--X--X---X-X--X-X--X-X-X-X-X-X-X-X-|
A|-5-5-5-5-5-5-5--7-7-7-7-7-7-7--10-10--9--9---7-7--5-5--4-4-4-4-4-4-4-4-|
E|-----------------------------------------------------------------------|

E|----------------------------------------------------------------|
B|----------------------------------------------------------------|
G|-7-7-7-7-7-7-7--9-9-9-9-9--14-14-14-14-14----7--7---------------| X1
D|-X-X-X-X-X-X-X--X-X-X-X-X---X--X--X--X--X----X--X---| Ya-Quiero!!-|
A|-5-5-5-5-5-5-5--7-7-7-7-7--12-12-12-12-12----5--5---------------|
E|----------------------------------------------------------------|

CORO (Guitarra 1) ...Hoy Despertar De Esta Mentira..."
E|---------------------------------------------------------------------|
B|---------------------------------------------------------------------|
G|-----------------------------------------------------7-7-7-7-7-7-7-7-|
D|-5-5-5-5-5-5-5-5--2-2-2-2-2-2-2-2--7-7-7-7-7-7-7-7---7-7-7-7-7-7-7-7-|
A|-5-5-5-5-5-5-5-5--2-2-2-2-2-2-2-2--7-7-7-7-7-7-7-7---5-5-5-5-5-5-5-5-|
E|-3-3-3-3-3-3-3-3--0-0-0-0-0-0-0-0--5-5-5-5-5-5-5-5-------------------|

E|---------------------------------------------------| |------|
B|---------------------------------------------------| |------|
G|---------------------------------------------------| X1   |--7~--|
D|-5-5-5-5-5-5-5-5--2-2-2-2-2-2-2-2--7-7-7-7-7-7-7-7-| |--7~--|
A|-5-5-5-5-5-5-5-5--2-2-2-2-2-2-2-2--7-7-7-7-7-7-7-7-| |--5~--|
E|-3-3-3-3-3-3-3-3--0-0-0-0-0-0-0-0--5-5-5-5-5-5-5-5-| |--5~--|

(Guitarra 2)
E|-------------------------------------------------------------------------|
B|-------------------------------------------------------------------------|
G|-11-11-11-11-11-11--7-7-7-7-7-7-7--9-9-9-9-9-9-9-9--11-11-11-11-11-11-11-|
D|-X--X--X--X--X--X---X-X-X-X-X-X-X--X-X-X-X-X-X-X-X--X--X--X--X--X--X--X--|
A|-9--9--9--9--9--9---5-5-5-5-5-5-5--7-7-7-7-7-7-7-7--9--9--9--9--9--9--9--|
E|-------------------------------------------------------------------------|

E|---------------------------------------------------| |-------|
B|---------------------------------------------------| |-------|
G|-7-7-7-7-7-7-7--11-11-11-11-11-11--9-9-9-9-9-9-9-9-| X1   |--11~--|
D|-X-X-X-X-X-X-X--X--X--X--X--X--X---X-X-X-X-X-X-X-X-| |--X----|
A|-5-5-5-5-5-5-5--9--9--9--9--9--9---7-7-7-7-7-7-7-7-| |--9~---|
E|---------------------------------------------------| |-------|

(BAJO) "Llorando Todo Aquel Dolor Que Me Dejaste..."
G|--------------------------------------------------------------------|
D|--------------------------------------------------------------------|
A|-5-5-5-5-5-5-5-5----------------------------------------------------|
E|------------------3-3-3-3-3-3-3-3--0-0-0-0-0-0-0-0--5-5-5-5-5-5-5-5-|

(Guitarra 1) "Borrando Todas Las Mentiras Que Dijiste..."
E|------------------------------------------------------------------------|
B|------------------------------------------------------------------------|
G|------------------------------------------------------------------------|
D|7-7--7-7-7-7--7-7--7-7-7------------------------------------------------
A|5-5--5-5-5-5--5-5--5-5-5--5-5--5-5-5-5--5-5--5-5--2-2--2-2-2-2--2-2--2-2
E|--------------------------3-3--3-3-3-3--3-3--3-3--0-0--0-0-0-0--0-0--0-0|
Pm. .  . . . .  . .  . . .  . .  . . . .  . .  . .  . .  . . . .  . .  . .

E|----------------------------|
B|----------------------------|
G|----------------------------| X1
D|----------------------------|
A|-7-7--7-7-7-7--7-7-7--7-7-7-|
E|-5-5--5-5-5-5--5-5-5--5-5-5-|
Pm . .  . . . .  . . .  . . .

(Guitarra 2)
E|----------------------------|
B|----------------------------|
G|-7-7-7-7-7/--11-11-11-11-11-| X3
D|-X-X-X-X-X---X--X--X--X--X--|
A|-5-5-5-5-5/--9--9--9--9--9--|
E|----------------------------|

E|-----------------------|
B|-----------------------|
G|-6-6-6-6-6/--9-9-9-9-9-| X1
D|-X-X-X-X-X---X-X-X-X-X-|
A|-4-4-4-4-4/--7-7-7-7-7-|
E|-----------------------|

¡Se Repite!
>*(PD-C ORO)*< (Guitarra 1 y 2)

¡Se Repite!
>*(CORO)*< (Guitarra 1 y 2)

INTERMEDIO (BAJO) X2
G|-----------------------------------------------------------------------|
D|-----------------------------------------------------------------------|
A|-5-5-5-5-5-5-5-5-5-5-5-5-5-5-5-5---------------------------------------|
E|---------------------------------3-3-3-3-3-3-3-3-3-3-3-3-3-3-3-3-3-3-3-|

INTERMEDIO (Guitarra 2) "Se Que Tu No Tardaste En Olvidar..."
E|------------------------------|
B|-5-----7-----5-----7-----5----|
G|---7-7---7-7---7-7---7-7---77-| X4
D|------------------------------|
A|------------------------------|
E|------------------------------|

(Guitarra 1) "Nunca Te Vi Yo Verme A Mi Como Lo Viste..."
E|---------------------------------------------------------------------|
B|---------------------------------------------------------------------|
G|------------------------------------2--------------------------------| X2
D|-2----------------------------------2--2-2-2-2-2-2-2-2-2-2-2-2-2-2-2-|
A|-2--2-2-2-2-2-2-2-2-2-2-2-2-2-2-2---0--0-0-0-0-0-0-0-0-0-0-0-0-0-0-0-|
E|-0--0-0-0-0-0-0-0-0-0-0-0-0-0-0-0------------------------------------|
Pm    . . . . . . . . . . . . . . .      . . . . . . . . . . . . . . .

E|------|
B|------|
G|-7--7-| X1 ¡"Ya Quiero"!...
D|-7--7-|
A|-5--5-|
E|-5--5-|

¡Se Repite!
>*(PD-C ORO)*< (Guitarra 1 y 2)

¡Se Repite!
>*(CORO)*< (Guitarra 1)

G  O (Guitarra 2)
E|-----------------------------------------------------------------------|
B|-7~--7--------------------------------10-8-7-8-7---7~7-7-7-7-7-7--10-7-|
G|-------9-7--------7---7--------7---7-------------9---------------------|
D|-----------9~-7-9---9---9~-7-9---9-------------------------------------|
A|-----------------------------------------------------------------------|
E|-----------------------------------------------------------------------|

E|------------------------------------------------------------------|
B|-7-7-7-7-7-10-7--8-7-8-7---------10-7-8-7-------------------------|
G|-------------------------9-7-9~-----------9-7-9-7---------7-9-7---| X1
D|------------------------------------------------------7-9-------9-|
A|--------------------------------------------------7-9-------------|
E|------------------------------------------------------------------|

FIN (Guitarra 1)
E|-------|
B|-------|
G|--7-7--|
D|--7-7--|
A|--5-5--|
E|--5-5--|

(Guitarra 2)
E|-----|
B|-----|
G|-7-7-|
D|-X-X-|
A|-5-5-|
E|-----|
Composição de Delux
1 exibições
    • ½ Tom
    • A
    • Bb
    • B
    • C
    • Db
    • D
    • Eb
    • E
    • F
    • F#
    • G
    • Ab
  • Adicionar à lista

    0 comentários

    Ver todos os comentários

    Conseguiu tocar?

    0 Tocaram 0 Ainda não

    Grave um vídeo tocando Quemando Cartas e nos envie!

    00:00 / 00:00
    Outros vídeos desta música
    Repetir Qualidade Automático
    Outros vídeos desta música
    00:00 / 00:00
    Automático

    Cifra Club Pro

    Aproveite o Cifra Club com benefícios exclusivos e sem anúncios
    Cifra Club Pro
    Aproveite o Cifra Club com benefícios exclusivos e sem anúncios
    OK