Cifra Club

Coração Balada (part. Fernando e Sorocaba)

Dilsinho

Cifra: Principal (violão e guitarra)
tom: C#m
[Intro] C#m7  A7M  B9  G#m7  C#m

E|------------------------------------------|
B|-----4-5-7-7/9--7/9-9-7-7-----------------|
G|-4/6--------------------------------------|
D|------------------------------------------|
A|------------------------------------------|
E|------------------------------------------|

E|------------------------------------------|
B|-------4-5-5/7--4h5-5-4\2-----------------|
G|-3/4-6------------------------------------|
D|------------------------------------------|
A|------------------------------------------|
E|------------------------------------------|

[Primeira Parte]

   A7M
É gata
 B9                                       G#m7
Você chegou colocando ordem na minha quebrada

    C#m                                     A7M
Em casa ou balada nossa parceria tá sempre fechada
   B9                       G#m7
O som que batia no paredão tá no coração
C#m
    Tá no coração

[Refrão]

                A7M
O que cê fez comigo
            B9
Do funk ao romantismo
           G#m7                C#m
Coração balada ficou todo apaixonadinho

               A7M
Olha o que cê fez comigo
            B9
Do funk ao romantismo
           G#m7                C#m
Coração balada ficou todo apaixonadinho

      A7M         B9
Oh oh oh oh uo uo ô
             G#m7                C#m
O coração balada ficou todo apaixonadinho
      A7M         B9
Oh oh oh oh uo uo ô
             G#m7                C#m
O coração balada ficou todo apaixonadinho

[Solo] G#7M  Bb9  Gm7  Cm
       G#7M  Bb9  Gm7  Cm

E|------------------------------------------|
B|-----3-4-6-6/8--6/8-8-6-6-----------------|
G|-3/5--------------------------------------|
D|------------------------------------------|
A|------------------------------------------|
E|------------------------------------------|

E|------------------------------------------|
B|-------3-4-4/6--3h4-4-3\1-----------------|
G|-2/3-5------------------------------------|
D|------------------------------------------|
A|------------------------------------------|
E|------------------------------------------|

E|------------------------------------------|
B|-----3-4-6-6/8--6/8-8-6-6-----------------|
G|-3/5--------------------------------------|
D|------------------------------------------|
A|------------------------------------------|
E|------------------------------------------|

E|------------------------------------------|
B|-------3-4-4/6--3h4-4-3\1-----------------|
G|-2/3-5------------------------------------|
D|------------------------------------------|
A|------------------------------------------|
E|------------------------------------------|

[Segunda Parte]

   G#7M
É gata
         Bb9                              Gm7
Você chegou colocando ordem na minha quebrada
              Cm                            G#7M
Em casa ou balada nossa parceria tá sempre fechada
             Bb9            Gm7
O som que batia no paredão tá no coração
Cm            G
   Tá no coração

[Refrão]

                G#7M
O que cê fez comigo
            Bb9
Do funk ao romantismo
           Gm7                 Cm
Coração balada ficou todo apaixonadinho

               G#7M
Olha o que cê fez comigo
            Bb9
Do funk ao romantismo
           Gm7                 Cm
Coração balada ficou todo apaixonadinho

      G#7M        Bb9
Oh oh oh oh uo uo ô
             Gm7                 Cm
O coração balada ficou todo apaixonadinho
      G#7M        Bb9
Oh oh oh oh uo uo ô
             Gm7                 Cm
O coração balada ficou todo apaixonadinho

[Solo] G#7M  Bb9  Gm7  Cm

E|------------------------------------------|
B|-----3-4-6-6/8--6/8-8-6-6-----------------|
G|-3/5--------------------------------------|
D|------------------------------------------|
A|------------------------------------------|
E|------------------------------------------|

E|------------------------------------------|
B|-------3-4-4/6--3h4-4-3\1-----------------|
G|-2/3-5------------------------------------|
D|------------------------------------------|
A|------------------------------------------|
E|------------------------------------------|

[Refrão]

                G#7M
O que cê fez comigo
            Bb9
Do funk ao romantismo
           Gm7                 Cm
Coração balada ficou todo apaixonadinho

               G#7M
Olha o que cê fez comigo
            Bb9
Do funk ao romantismo
           Gm7                 Cm
Coração balada ficou todo apaixonadinho

      G#7M        Bb9
Oh oh oh oh uo uo ô
             Gm7                 Cm
O coração balada ficou todo apaixonadinho
      G#7M        Bb9
Oh oh oh oh uo uo ô
             Gm7                 Cm
O coração balada ficou todo apaixonadinho
00:00 / 00:00
Outros vídeos desta música
Repetir
Outros vídeos desta música
Compositor não encontrado.
Colaboração e revisão:
  • Thiago Almeida
1.055 exibições
    • ½ Tom
    • Am
    • Bbm
    • Bm
    • Cm
    • C#m
    • Dm
    • Ebm
    • Em
    • Fm
    • F#m
    • Gm
    • G#m
  • Adicionar à lista

    0 comentários

    Ver todos os comentários

    Conseguiu tocar?

    0 Tocaram 0 Ainda não

    Grave um vídeo tocando Coração Balada (part. Fernando e Sorocaba) e nos envie!

    Entre para oCifra Club PRO

    Tenha acesso a benefícios exclusivos no App e no Site

    • Chega de anúncios

    • Prioridade de compra em lançamentos

    • Mais recursos no app do Afinador

    • Atendimento Prioritário

    • Descontos nos produtos Cifra Club

    • Ajude a produzir mais conteúdo

    00:00 / 00:00

    Cifra Club Pro

    Aproveite o Cifra Club com benefícios exclusivos e sem anúncios
    Cifra Club Pro
    Aproveite o Cifra Club com benefícios exclusivos e sem anúncios
    OK