Cifra Club

Aprenda

Maddest Hatter

Dokken

Tab de baixo: Principal
Taken from the album: Erase The Slate
Tabbed by : Derrick Morris

Standard 5 string tuning: B E A D G


G------------|---------------------------------------|
D------------|---------------------------------------|
A------------|---------------------------------------|
E--3----3----|--3-3-3-3-3-3-3-3-3-3-3-3-3-3-3-3-3-3--|
B------------|---------------------------------------|
Intro

G--------------------------------------------------------------|
D--------------------------------------------------------------|
A--------------------------------------------------------------|
E--3-3-3-3-3-3-3-3-3-3-3-3-------------------------------------|
B-------------------------------------4-4-4-4-4-4-4-4-4-4-4-4--|
verses

G--------------------------------------|
D--------------------------------------|
A--------------------------------------|
E--------------------------------------|
B--3-3-3-3--4-4-4-4--5-5-5-5--6-6-6-6--|
pre chorus

G-----------------------------------------|
D-----------------------------------------|
A-----------------------------------------|
E--3-3-3-3-3-3-3-^-8-8-8------------------|
B----------------------------------4-4-4--|
chorus

G---------------------|
D---------------------|
A---------------------|
E---------------------|
B--3-3-3-3--4-4--6-6--|
Chorus end

G---------------------------------------------------------------------|
D---------------------------------------------------------------------|
A--------------------------^10-----------------------------3-3-3-3-3--|
E---------------------------------------------------------------------|
B--3---3---3---3---3--3---------3---3---3---3---3---------------------|
Break@ 2:15

G---------------------------|
D---------------------------|
A---------------------------|
E--0^3-3-3-3---0^3-3-3-3-0--|
B---------------------------|
Solo(riff 1)  Play this 8 times then go to riff 2

G------------------7^-5---5----------------------------555--|
D-------------------------7----7-------------------5-7------|
A--3^5-5-5-5--------------------3^5-5-5-5-------------------|
E-----------------------------------------------------------|
B-----------------------------------------------------------|
Solo riff 2 (The fills are VERY fast)

Rate it after you learn it. ROCK ON!!!!!
-----------------------------------------------------------------------------
Composição de Beach / Brown / Dokken / Pilson
110 exibições

0 comentários

Mostrar mais comentários

Conseguiu tocar?

0 Tocaram 0 Ainda não

Grave um vídeo tocando Maddest Hatter e mande pra gente!

00:00 / 00:00
outros vídeos desta música
repetir qualidade Automático
Outros vídeos desta música
00:00 / 00:00
Automático

Cifra Club Pro

Aproveite o Cifra Club com benefícios exclusivos e sem anúncios
7 dias grátis
Cifra Club Pro
Aproveite o Cifra Club com benefícios exclusivos e sem anúncios
7 dias grátis
OK